Oops, an error
Loading. Please wait.

Strange World Tab

ver2
ver2

Solo

Whole song

Interactive

More versions @911Tabs.com
16,663 views 49 this week
5 commentsread comments
1 2 3 4 5
excellent!
x 8
Autoscroll
+/-
esc
set tempo
stop
Contributor
Difficulty
advanced
Hey! There's an official Ultimate Guitar app which is ideal
for learning songs when you're away from computer. Get the app
WARNING: You are trying to view
                                    content from Ultimate-Guitar.com
                                    in an unauthorized application,
                                    which is prohibited.

                                    Please use an official Ultimate
                                    Guitar Tabs application for iPhone,
                                    iPad or Android to access legitimate
                                    chords, guitar, bass, and drum tabs
                                    from Ultimate-Guitar.com database.

                                    Type "ultimate guitar tabs" in Apple
                                    App Store's or Android Market's
                                    search to find the application.
IRON MAIDEN - Strange World

Firstly, I did not create this tab!
I just made it MUCH less confusing, cut out some stuff (the bass etc) & formed it all together properly!
So enjoy!

INTRO
Gtr II
E||----------0---------------0-------|----------0---------------0-------|
B||------------0---------------0-----|------------0---------------0-----|
G||--------0-----0---------0-----0---|--------0-----0---------0-----0---|
D||------4---------4-----4---------4-|------4---------4-----4---------4-|
A||----2---------------2-------------|----2---------------2-------------|
E||--0---------------0---------------|--0---------------0---------------|
                      Gtr I
                      |--19-----12------19------12--------|
                      |----------------------12-----------|
                      |-----------------------------------|
                      |-----------------------------------|
                      |-----------------------------------|
                      |-----------------------------------|
Gtr II
--0-------------------|------0---------0--------------0---|
----0-----------------|--------0---------0----------0---0-|
------0---------------|--0-------0--0------0------0-------|
--------4-------------|--9----------5-----------7---------|
----------2-----------|--10---------7---------9-----------|
----------------------|-----------------------------------|
                                            Gtr I
                                            |--------12--19-----19------12------|
                                            |--12--------------------12---------|
                                            |-----------------------------------|
                                            |-----------------------------------|
                                            |-----------------------------------|
                                            |-----------------------------------|
Gtr II
-------0---0----0---0------0---------0------|------0---------0--------------0---|
---------0---7----0---0------0-7-------0-7--|--------0---------0----------0---0-|
-----0--------------------------------------|----------0---------0------0-------|
------------------------5-------------------|-------------------------7---------|
--7-------------------------------7---------|--10---------7---------9-----------|
--------------------------------------------|-----------------------------------|
                                                 Gtr I
                                                 |--19-------12------12---------12------|
                                                 |-------12-----------------12----------|
                                                 |--------------------------------------|
                                                 |--------------------------------------|
                                                 |--------------------------------------|
                                                 |--------------------------------------|
Gtr II
---------7-----0---0---0-----0-----------0-------|------0-----------0---------------0---|
-------0-----7---7---7---7-----7---7---0---0---0-|----0---0---0-------0---0-------0---0-|
-----0-----0---------------0-----0-----------0---|----------0-----------0-------0-------|
-------------------------------------5-----------|--5-------------5-----------7---------|
--7----------------------------------------------|--------------7-----------9-----------|
-------------------------------------------------|--------------------------------------|
                                                 Gtr I
                                                |--19----12--19-----12--------12-12-|
                                                |----------------12--------12-------|
                                                |-----------------------------------|
                                                |-----------------------------------|
                                                |-----------------------------------|
                                                |-----------------------------------|
Gtr II
---------7-----0---0---0---0---0---0------0---0-|------0---------0--------------0---|
-------0-----7---7---7---7---7---7------7---7---|--------0---------0----------0---0-|
-----0-----0------------------------------------|----------0---------0------0-------|
-------------------------5-----------5----------|-------------------------7---------|
--7---------------------------------------------|--10---------7---------9-----------|
------------------------------------------------|-----------------------------------|

INTRO GUITAR SOLO
Gtr I
-------------------------------|------------14--15--15/17~----15-17p15\14-15p14-----|
-------------------------17p15-|--17~-------------------------------------------15--|
-------------------------------|----------------------------------------------------|
-------------------------------|----------------------------------------------------|
-------------------------------|----------------------------------------------------|
-------------------------------|----------------------------------------------------|

-----------------------------------------|----------------------------------------------|
--17~---------17b17p15-17~---------------|-------------15-------------12-13-15-12-13-15/|
--------------------------------------12-|--14b-----------14b-14~-----------------------|
-----------------------------------14----|----------------------------------------------|
-----------------------------------------|----------------------------------------------|
-----------------------------------------|----------------------------------------------|


-------------14-14h15-14------------------|
--17~--------------------15-17~-----------|
----------------------------------------7/|
--------------------------------------9---|
------------------------------------------|
------------------------------------------|

-----------------------------------------------|-------------------------------12-14-|
---------7-8p7---7-8/-10~-----8h10p8-7h8p7-----|-------------------------------------|
--9~-----------9---------------------------9-7-|--9b---9b-9b-9b-9r7-9~---------------|
-----------------------------------------------|-------------------------------------|
-----------------------------------------------|-------------------------------------|
-----------------------------------------------|-------------------------------------|

--15~-----12-14-15-12-14-15/17--14h15----14-------------------|
--------------------------------------17----15h17-13p12-13-15-|
--------------------------------------------------------------|
--------------------------------------------------------------|
--------------------------------------------------------------|
--------------------------------------------------------------|

----------------------------|
--17~-----------------------|
----------------------------|
----------------------------|
----------------------------|
----------------------------|

Guitar behind solo
Gtr II
---------------0---0------0---0------0---0---|--3--------3--------5-------5--------|
-------0-7--7----7---7-7----7---7-7----7---7-|-----5--------5-----7----7-----7-----|
-----0---------------------------------------|--------5--------5/-7-------------7--|
---------------------------------------------|-------------------------------------|
--7------7--7----------7----------7----------|-------------------------------------|
---------------------------------------------|-------------------------------------|

--7---7-----7--------7---7-----7--------|--3--------3---------5--------5----------|
--8-----8------8-----7-----7------7-----|-----5---------5---5----7----------7---7-|
--9-------9-------9--9-------9-------9--|--------5--------5---------7-----7---7---|
----------------------------------------|-----------------------------------------|
----------------------------------------|-----------------------------------------|
----------------------------------------|-----------------------------------------|
Play Both^^^^^again

--7--------7----------7----------7------7--|--3--------3--------5-------5----------|
-----8-----8----8---8-7----7---7-7----7-7--|-----5--------5-----7----7-----7-------|
--------9--9--9---9---9--9---9---9--9---9--|--------5--------5/-7-------------7----|
-------------------------------------------|---------------------------------------|
-------------------------------------------|---------------------------------------|
-------------------------------------------|---------------------------------------|
    Play this bar again after 
--7---7-----7--------7---7-----7--------|--3--------3--------5-------5-------------|
--8-----8------8-----7-----7------7-----|-----5--------5-----7----7-----7----------|
--9-------9-------9--9-------9-------9--|--------5--------5/-7-------------7-------|
----------------------------------------|------------------------------------------|
----------------------------------------|------------------------------------------|
----------------------------------------|------------------------------------------|

VERSE I
Gtr I
|--------2-----2-----------------------------|
|----------0------0-----------1--3-5-3-0-1-0-|
|----0-------0-------------0-----------------|
|----2------------------2--------------------|
|----2---------------3-----------------------|
|----0---------------------------------------|

----------3-2-------2-------0---0-10/12-12-12\10--|
------3-------3---------------1---10/12-12-12\10--|
----2---------------------0-----------------------|
--0-----0--------0--------------------------------|
-----------------------3--------------------------|
--------------------------------------------------|
Play Both^^^^^again

Play this again after the next bar
--------2-----2-----------------------------|
----------0------0-----------1--3-5-3-0-1-0-|
----0-------0-------------0-----------------|
----2------------------2--------------------|
----2---------------3-----------------------|
----0---------------------------------------|

----------3-2-------2-------0-------------------|
------3-------3---------------------------------|
----2---------------------0------------12-7--5--|
--0-----0--------0------------------12----------|
-----------------------3---------12-------------|
------------------------------12----------------|

----------3-2-------2-------0-10/12-12-12-12-12\10--|--------7---7--------7------------|
------3-------3---------------10/12-12-12-12-12\10--|------8---8----8-----8------------|
----2---------------------0-------------------------|------------------9--9------------|
--0-----0--------0----------------------------------|----------------------------------|
-----------------------3----------------------------|----------------------------------|
----------------------------------------------------|--0-------------------------------|

Gtr II
|-----7-----7--------7--------7--------|
|-------8------8--------8--------8-----|
|---------9-------9--------7--------7--|
|--------------------------------------|
|--------------------------------------|
|--------------------------------------|

--5-----5-----5--------3--------3-----3--|--7--------7-------7--7--------7------|
----7-----7------7--------5--------5-----|-----8-------8---8-------8-----8------|
------7-----7-------7--------5-----------|--------9------9------------7--7------|
-----------------------------------------|--------------------------------------|
-----------------------------------------|--------------------------------------|
-----------------------------------------|--------------------------------------|

--5--------5-------5--3--------3-----3--|--7--------7-------7--7--------7------|
-----7-------7---7-------5--------5-----|-----8-------8---8-------8-----8------|
--------7------7------------5-----------|--------9------9------------7--7------|
----------------------------------------|--------------------------------------|
----------------------------------------|--------------------------------------|
----------------------------------------|--------------------------------------|

--5--------5--------3--------3------|--7--------7------7--------7-------|
-----7-------7---------5-----5------|-----8-----8---------8--------8----|
--------7------7----------5--5------|--------9--9------------7----------|
------------------------------------|-----------------------------------|
------------------------------------|-----------------------------------|
------------------------------------|-----------------------------------|

--5--------5--------3--------3--------|
-----7--------7--------5--------5-----|
--------7--------7--------5--------5--|
--------------------------------------|
--------------------------------------|
--------------------------------------|
AFTER-VERSE I
Gtr 2
--------------------0---0------0---0-|
---------------7--7---7---7--7---7---|
---------------0---------------------|
---------------5---------------------|
---------------7---------------------|
--0----------------------------------|

Gtr I
|--12------------19-------12------|
|------12-------------12----------|
|---------------------------------|
|---------------------------------|
|---------------------------------|
|---------------------------------|

GtrII
------0---------0--------------0---|---------7-----0---0---0-----0-----------0-------|
--------0---------0----------0---0-|-------0-----7---7---7---7-----7---7---0---0---0-|
--0-------0--0------0------0-------|-----0-----0---------------0-----0-----------0---|
--9----------5-----------7---------|-------------------------------------5-----------|
--10---------7---------9-----------|--7----------------------------------------------|
-----------------------------------|-------------------------------------------------|

Gtr I
--12--------12------19-------12------|
--------12---------------12----------|
-------------------------------------|
-------------------------------------|
-------------------------------------|
-------------------------------------|

GtrII
------0---------0--------------0---|-----------0------0---0------0---0------0---0-|
--------0---------0----------0---0-|---------7---7--7---7---7--7---7---7--7---7---|
--0-------0--0------0------0-------|-------0-----0----------0----------0----------|
--9----------5-----------7---------|-----5-------5----------5----------5----------|
--10---------7---------9-----------|--7----------7----------7----------7----------|
-----------------------------------|----------------------------------------------|

GtrI
--12--------12------19-------12------|
--------12---------------12----------|
-------------------------------------|
-------------------------------------|
-------------------------------------|
-------------------------------------|

Gtr II
------0---------0--------------0---|---------7-----0---0---0-----0-----------0-------|
--------0---------0----------0---0-|-------0-----7---7---7---7-----7---7---0---0---0-|
--0-------0--0------0------0-------|-----0-----0---------------0-----0-----------0---|
--9----------5-----------7---------|-------------------------------------5-----------|
--10---------7---------9-----------|--7----------------------------------------------|
-----------------------------------|-------------------------------------------------|

Gtr I
--12--------12-------19--------12------|
--------12-------12--------12----------|
---------------------------------------|
---------------------------------------|
---------------------------------------|
---------------------------------------|

GtrII
------0---------0--------------0---|---------------0---0------0---0------0---0---|
--------0---------0----------0---0-|-------0-7--7----7---7-7----7---7-7----7---7-|
--0-------0--0------0------0-------|-----0---------------------------------------|
--9----------5-----------7---------|---------------------------------------------|
--10---------7---------9-----------|--7------7--7----------7----------7----------|
-----------------------------------|---------------------------------------------|

Second solo
Gtr I
|------------------------------|
|------------------------------|
|---------------------------12-|
|------------------------14----|
|------------------------------|
|------------------------------|

-------------------------------------|--15b-----15b-15b---15b--15-14-12-------------|
-------------12-15b-15~-----------12-|----------------------------------15b---12-15-|
--14b--------------------------------|----------------------------------------------|
-------------------------------------|----------------------------------------------|
-------------------------------------|----------------------------------------------|
-------------------------------------|----------------------------------------------|

-------------14-15-17r-15-17p15---14-15-14------------------|
--17r-----17-------------------------------17p15h17p15-17---|
------------------------------------------------------------|
------------------------------------------------------------|
------------------------------------------------------------|
------------------------------------------------------------|

------14-15-14---------------------15--------------|
---------------15-------15----15b-----15r-15r------|
------------------16-14----------------------------|
---------------------------------------------------|
---------------------------------------------------|
---------------------------------------------------|

-----------------------------------14-15-17-19-17-15-|
-----------------------------15-17-------------------|
--14r---14r----16b--16----16-------------------------|
-----------------------------------------------------|
-----------------------------------------------------|
-----------------------------------------------------|

--17r-----15h17p15\14h15p14h15p14h15p14----14-----------------------------------------------|
----------------------------------------17----17p15h17p15h17p15----15-----------------------|
----------------------------------------------------------------16----16p14\12h14-14r12h14--|
--------------------------------------------------------------------------------------------|
--------------------------------------------------------------------------------------------|
--------------------------------------------------------------------------------------------|


-----------------------------------------------------12-|
--------------------------------------------------12----|
--14r-----12-14-12-11-12-11----------------12-14b-------|
----------------------------12/14~------14--------------|
--------------------------------------------------------|
--------------------------------------------------------|

---------15--------------------------------------------|---------------------------|
--15b---------15r--------------------------------------|---------------------------|
--------------------14r-----12h14p12\11h12p11\9h11p9\7-|--9~-----------------------|
-------------------------------------------------------|---------------------------|
-------------------------------------------------------|---------------------------|
-------------------------------------------------------|---------------------------|

Guitar behind solo
GtrII
--7---7-----7--------7------7-------7-------|
--8-----8------8-----7--7-----7---7---7---7-|
--9-------9-------9--9----9-----9-------9---|
--------------------------------------------|
--------------------------------------------|
--------------------------------------------|

--3--------3--------5-----5------5-----|--7---7-----7--------7------7-------7-------|
-----5--------5----------------7----7--|--8-----8------8-----7--7-----7---7---7---7-|
--------5--------5-----7-----7---------|--9-------9-------9--9----9-----9-------9---|
---------------------------------------|--------------------------------------------|
---------------------------------------|--------------------------------------------|
---------------------------------------|--------------------------------------------|

-----3--------3--------5--------5-----|-----7--------7-----7------7--------|
--------5--------5--------7--------7--|--------8--------8--7---------7-----|
--5--------5--------7--------7--------|--9--------9--------9------------9--|
--------------------------------------|------------------------------------|
--------------------------------------|------------------------------------|
--------------------------------------|------------------------------------|

-----3--------3--------5--------5-----|-----7--------7-----7------7--------|
--------5--------5--------7--------7--|--------8--------8--7---------7-----|
--5--------5--------7--------7--------|--9--------9--------9------------9--|
--------------------------------------|------------------------------------|
--------------------------------------|------------------------------------|
--------------------------------------|------------------------------------|

VERSE II
Gtr I (same as verse I)

Gtr II (with wah)
--7------7--------7--------7------|--5--------5------3--------3--------|
--8---------8--------8-----8------|-----7-----7---------5--------5-----|
--9------------9--------7--7------|--------7--7------------5--------5--|
----------------------------------|------------------------------------|
----------------------------------|------------------------------------|
----------------------------------|------------------------------------|

--7--------7------7--------7------|--5--------5------3--------3--------|
-----8-----8---------8-----8------|-----7-----7---------5--------5-----|
--------9--9------------7--7------|--------7--7------------5--------5--| Play twice more
----------------------------------|------------------------------------|
----------------------------------|------------------------------------|
----------------------------------|------------------------------------|

--7------7-------------0---0------0---0-|
--8---------8-----7--7---7---7--7---7---|
--9------------9--0----------0----------|
------------------5----------5----------|
------------------7----------7----------|
----------------------------------------|

AFTER-VERSE II
Gtr II
|------0---------0--------------0---|
|--------0---------0----------0---0-|
|--0-------0--0------0------0-------|
|--9----------5-----------7---------|
|--10---------7---------9-----------|
|-----------------------------------|

                                                 Gtr I
                                                 |--12-------12----19-------12-------|
                                                 |-------12--------------12----------|
                                                 |-----------------------------------|
                                                 |-----------------------------------|
                                                 |-----------------------------------|
                                                 |-----------------------------------|


Gtr II
---------7-----0---0---0-----0-----------0-------|------0---------0--------------0---|
-------0-----7---7---7---7-----7---7---0---0---0-|--------0---------0----------0---0-|
-----0-----0---------------0-----0-----------0---|--0-------0--0------0------0-------|
-------------------------------------5-----------|--9----------5-----------7---------|
--7----------------------------------------------|--10---------7---------9-----------|
-------------------------------------------------|-----------------------------------|
                                                 Gtr I
                                                 |--19-------12-----------12---------|
                                                 |-------12--------12--12------------|
                                                 |-----------------------------------|
                                                 |-----------------------------------|
                                                 |-----------------------------------|
                                                 |-----------------------------------|

Gtr II
---------7-----0---0---0-----0-----------0-------|------0---------0--------------0---|
-------0-----7---7---7---7-----7---7---0---0---0-|--------0---------0----------0---0-|
-----0-----0---------------0-----0-----------0---|--0-------0--0------0------0-------|
-------------------------------------5-----------|--9----------5-----------7---------|
--7----------------------------------------------|--10---------7---------9-----------|
-------------------------------------------------|-----------------------------------|
                                                  Gtr I
                                                 |--19-------12------19------12------|
                                                 |--------12--------------12---------|
                                                 |-----------------------------------|
                                                 |-----------------------------------|
                                                 |-----------------------------------|
                                                 |-----------------------------------|

Gtr II
---------7-----0---0---0-----0-----------0-------|------0---------0--------------0---|
-------0-----7---7---7---7-----7---7---0---0---0-|--------0---------0----------0---0-|
-----0-----0---------------0-----0-----------0---|--0-------0--0------0------0-------|
-------------------------------------5-----------|--9----------5-----------7---------|
--7----------------------------------------------|--10---------7---------9-----------|
-------------------------------------------------|-----------------------------------|
                            Gtr I
                            --2----------------|--||
                            --0----------------|--||
                            --0----------------|--||
                            --2----------------|--||
                            --2----------------|--||
                            --0----------------|--||
Gtr II
-------------------0-------|--0----------------|--||
--7------------------0-----|--7----------------|--||
--0--------------0-----0---|--0----------------|--||
--5------------4---------4-|--5----------------|--||
--7----------2-------------|--7----------------|--||
-----------0---------------|--0----------------|--||

Main chord structure
Em G D C

END!!!!!
comments
print report bad tab
5 comments total. Showing first comments.
+1 reply
Carlyism wrote on November 4 2007, 06:18 pm

The intro for "Gtr 1" is actually harmonics on the 12th & 7th fret.

+1 reply
Icaus wrote on June 27 2008, 01:40 am

it can still be hamoincs (natural btw) in 19th fret instead of 7th, its the same

0 reply
aarong15 wrote on August 12 2008, 11:31 am

nice job:):)

I want to post or [tab]
guest
You may want to rate the tab now too:
select rating
Please do not post tabs as comments. Select "correction" instead!