Oops, an error
Loading. Please wait.

Tailgunner Tab

ver2
ver2

Whole song

Interactive

More versions @911Tabs.com
1,564 views 9 this week
no commentswrite comment
1 2 3 4 5
excellent!
x 2
Autoscroll
+/-
esc
set tempo
stop
Contributor
Difficulty
intermediate
Hey! There's an official Ultimate Guitar app which is ideal
for learning songs when you're away from computer. Get the app
WARNING: You are trying to view
                                    content from Ultimate-Guitar.com
                                    in an unauthorized application,
                                    which is prohibited.

                                    Please use an official Ultimate
                                    Guitar Tabs application for iPhone,
                                    iPad or Android to access legitimate
                                    chords, guitar, bass, and drum tabs
                                    from Ultimate-Guitar.com database.

                                    Type "ultimate guitar tabs" in Apple
                                    App Store's or Android Market's
                                    search to find the application.
#----------------------------------PLEASE NOTE---------------------------------#
#This file is the author's own work and represents their interpretation of the #
#song. You may only use this file for private study, scholarship, or research. #
#------------------------------------------------------------------------------##

                                   TAILGUNNER
                           As recorded by Iron Maiden
                  (From the 1990 Album NO PRAYER FOR THE DYING)

Words and Music by Steve Harris, Bruce Dickinson
Transcribed by TheEvilThatMenDo

This is TheEvilThatMenDo's tab but i had to adjust most of it.

Gtr I (E A D G B E) - 'GtrI'
Gtr II (E A D G B E) - 'GtrII'
Gtr III (E A D G B E) - 'GtrIII'
Gtr IV (E A D G B E) - 'GtrIV'

 Intro
  Fast Rock Q=192
  F#
 4/4
  Gtr I
   PM------------------------------------------------
   E  E  E  E  E  E  E  E    E  E  E  E  E  E  E  E
|-------------------------|-------------------------|
|-------------------------|-------------------------|
|-------------------------|-------------------------|
|-11-11-11-11-11-11-11-11-|-11-11-11-11-11-11-11-11-|
|--9--9--9--9--9--9--9--9-|--9--9--9--9--9--9--9--9-|
|-------------------------|-------------------------|


 ------------------------------------------------|
   E  E  E  E  E  E  E  E    E  E  E  E  E  E  E  E
|-------------------------|--------------------------|
|-------------------------|--------------------------|
|-------------------------|--------------------------|
|-11-11-11-11-11-11-11-11-|-11-11-11-11-11-11-11-11--|
|--9--9--9--9--9--9--9--9-|--9--9--9--9--9--9--9--9--|
|-------------------------|--------------------------|


    F#
     PM--------------------------------------------------------------------------
     E  E  E  E  E  E  E  E    E  E  E  E  E  E  E  E    E  E  E  E  E  E  E  E
||--------------------------|-------------------------|-------------------------|
||o-------------------------|-------------------------|-------------------------|
||--------------------------|-------------------------|-------------------------|
||--11-11-11-11-11-11-11-11-|-11-11-11-11-11-11-11-11-|-11-11-11-11-11-11-11-11-|
||o--9--9--9--9--9--9--9--9-|--9--9--9--9--9--9--9--9-|--9--9--9--9--9--9--9--9-|
||--------------------------|-------------------------|-------------------------|
|
|   Gtr II
|    W                         W                         W
||--------------------------|-------------------------|-------------------------|
||o-------------------------|-------------------------|-------------------------|
||--------------------------|-------------------------|-------------------------|
||--------------------------|-------------------------|-------------------------|
||o-------------------------|-------------------------|-------------------------|
||--------------------------|-------------------------|-------------------------|


 1.                          2.
                                             F#
 --------------------------------------------------|
   E  E  E  E  E  E  E  E      E  E  E  E  E  E  E  E
|--------------------------||-------------------------||
|-------------------------o||-------------------------||
|--------------------------||-------------------------||
|-11-11-11-11-11-11-11-11--||-11-11-11-11-11-11-11-11-||
|--9--9--9--9--9--9--9--9-o||--9--9--9--9--9--9--9--9-||
|--------------------------||-------------------------||
|
|  W                           H           E  E  E  E
|--------------------------||-----------------6--6--6-||
|-------------------------o||-----------------7--7--7-||
|--------------------------||-----------------6--6--6-||
|--------------------------||-------------------------||
|-------------------------o||-------------------------||
|--------------------------||-------------------------||


  F# E
       PM---------------------------------
   E E E E  E  E E E    E  E E E E E E E
|--------------------|-------------------|
|--------------------|-------------------|
|--------------------|-------------------|
|-11S9-9-9--9--9-9-9-|--9--9-9-9-9-9-9-9-|
|--9S7-7-7--7--7-7-7-|--7--7-7-7-7-7-7-7-|
|--------------------|-------------------|
|
|  E Q   E +H          +W
|--6s4---4-(4)-------|-(4)---------------|
|--7s5---5-(5)-------|-(5)---------------|
|--6s4---4-(4)-------|-(4)---------------|
|--------------------|-------------------|
|--------------------|-------------------|
|--------------------|-------------------|


                                    E
 ---------------------------------------|
   E  E E E E E E E    E  E E E  E  E E E
|-------------------|---------------------|
|-------------------|---------------------|
|-------------------|---------------------|
|--9--9-9-9-9-9-9-9-|--9--9-9-9--9--9-9-9-|
|--7--7-7-7-7-7-7-7-|--7--7-7-7--7--7-7-7-|
|-------------------|---------------------|
|
| +W                  +H        +E  E E E
|-(4)---------------|-(4)-------(4)-4-4-4-|
|-(5)---------------|-(5)-------(5)-5-5-5-|
|-(4)---------------|-(4)-------(4)-4-4-4-|
|-------------------|---------------------|
|-------------------|---------------------|
|-------------------|---------------------|


  E F#
          PM-------------------------------------------
  E  E    E  E  E  E  E  E    E   E  E  E  E  E  E  E
|--------------------------|--------------------------|
|--------------------------|--------------------------|
|--------------------------|--------------------------|
|-9S11---11-11-11-11-11-11-|-11--11-11-11-11-11-11-11-|
|-7S=9----9--9--9--9--9--9-|--9---9--9--9--9--9--9--9-|
|--------------------------|--------------------------|
|
| E  H..                     +W
|-4s=6---------------------|-(6)----------------------|
|-5s=7---------------------|-(7)----------------------|
|-4s=6---------------------|-(6)----------------------|
|--------------------------|--------------------------|
|--------------------------|--------------------------|
|--------------------------|--------------------------|


 --------------------------------------------------|
   E   E  E  E  E  E  E  E    E   E  E  E  E  E  E  E
|--------------------------|--------------------------|
|--------------------------|--------------------------|
|--------------------------|--------------------------|
|-11--11-11-11-11-11-11-11-|-11--11-11-11-11-11-11-11-|
|--9---9--9--9--9--9--9--9-|--9---9--9--9--9--9--9--9-|
|--------------------------|--------------------------|
|
| +W                         +H.                 Q
|-(6)----------------------|-(6)----------------------|
|-(7)----------------------|-(7)----------------------|
|-(6)----------------------|-(6)----------------------|
|--------------------------|--------------------------|
|--------------------------|--------------------------|
|--------------------------|--------------------------|


  F#
   PM------------------------------------------------
   E  E  E  E  E  E  E  E    E  E  E  E  E  E  E  E
|-------------------------|-------------------------|
|-------------------------|-------------------------|
|-------------------------|-------------------------|
|-11-11-11-11-11-11-11-11-|-11-11-11-11-11-11-11-11-|
|--9--9--9--9--9--9--9--9-|--9--9--9--9--9--9--9--9-|
|-------------------------|-------------------------|
|
|  E  E  E  E  E  E  E  E    E  E  E  E  E  E  E  E
|-------------------------|-------------------------|
|-------------------------|-------------------------|
|--3h=4--4--4--3-----3h=4-|--4--4--3-----3h=4--4--4-|
|-----------------4-------|-----------4-------------|
|-------------------------|-------------------------|
|-------------------------|-------------------------|
|
| Gtr III
|  W                         W
|-------------------------|-------------------------|
|-------------------------|-------------------------|
|-------------------------|-------------------------|
|-------------------------|-------------------------|
|-------------------------|-------------------------|
|-------------------------|-------------------------|


 --------------------------------------------------|
   E  E  E  E  E   E  E  E    E   E  E  E  E  E  E  E
|--------------------------|--------------------------|
|--------------------------|--------------------------|
|--------------------------|--------------------------|
|-11-11-11-11-11--11-11-11-|-11--11-11-11-11-11-11-11-|
|--9--9--9--9--9---9--9--9-|--9---9--9--9--9--9--9--9-|
|--------------------------|--------------------------|
|
|  E  E  E  E +H             +W
|--------------------------|--------------------------|
|--------------------------|--------------------------|
|--4p=3--------------------|--------------------------|
|--------4--4-(4)----------|-(4)----------------------|
|--------------------------|--------------------------|
|--------------------------|--------------------------|
|
|  Q     E  E +Q      Q       W
|-----------0-(0)----------|--------------------------|
|---------------------0----|--------------------------|
|--------------------------|--3-----------------------|
|--------------------------|--------------------------|
|--------------------------|--------------------------|
|--------------------------|--------------------------|


  F#
   PM--------------------------------------------------
   E   E  E  E  E  E  E  E    E   E  E  E  E  E  E  E
|--------------------------|--------------------------|
|--------------------------|--------------------------|
|--------------------------|--------------------------|
|-11--11-11-11-11-11-11-11-|-11--11-11-11-11-11-11-11-|
|--9---9--9--9--9--9--9--9-|--9---9--9--9--9--9--9--9-|
|--------------------------|--------------------------|
|
|  E   E  E  E  E  E  E  E    E   E  E  E  E  E  E  E
|--------------------------|--------------------------|
|--------------------------|--------------------------|
|--3h==4--4--4--3-----3h=4-|--4---4--3-----3h=4--4--4-|
|------------------4-------|------------4-------------|
|--------------------------|--------------------------|
|--------------------------|--------------------------|
|
| +W                         +W
|--------------------------|--------------------------|
|--------------------------|--------------------------|
|-(3)----------------------|-(3)----------------------|
|--------------------------|--------------------------|
|--------------------------|--------------------------|
|--------------------------|--------------------------|


 ----------------------------------------------------|
   E   E  E  E  E   E  E  E    E   E  E  E  E   E  E  E
|---------------------------|---------------------------|
|---------------------------|---------------------------|
|---------------------------|---------------------------|
|-11--11-11-11-11--11-11-11-|-11--11-11-11-11--11-11-11-|
|--9---9--9--9--9---9--9--9-|--9---9--9--9--9---9--9--9-|
|---------------------------|---------------------------|
|
|  E   E  E  E +H             +H           +E   E  E  E
|---------------------------|-------------------6--6--6-|
|---------------------------|-------------------7--7--7-|
|--4p==3--------------------|-------------------6--6--6-|
|---------4--4-(4)----------|-(4)----------(4)----------|
|---------------------------|---------------------------|
|---------------------------|---------------------------|
|
| +Q.        E +Q      Q       W
|------------0-(0)----------|---------------------------|
|----------------------0----|---------------------------|
|-(3)-----------------------|--3------------------------|
|---------------------------|---------------------------|
|---------------------------|---------------------------|
|---------------------------|---------------------------|


  F#E
        PM---------------------------------------------
  E  E  E  E  E   E  E  E    E   E   E  E  E  E  E  E
|-------------------------|---------------------------|
|-------------------------|---------------------------|
|-------------------------|---------------------------|
|-9S11-11-11-11--11-11-11-|-11--11--11-11-11-11-11-11-|
|-7S=9--9--9--9---9--9--9-|--9---9---9--9--9--9--9--9-|
|-------------------------|---------------------------|
|
| E  Q     E +H             +W
|-6s=4-----4-(4)----------|-(4)-----------------------|
|-7s=5-----5-(5)----------|-(5)-----------------------|
|-6s=4-----4-(4)----------|-(4)-----------------------|
|-------------------------|---------------------------|
|-------------------------|---------------------------|
|-------------------------|---------------------------|
|
| Q.       E +Q      Q      +E   Q.        H
|-------------------------|---------------------------|
|-------------------------|---------------------------|
|----------3-(3)-----4----|-(4)--3--------------------|
|-2-----------------------|----------------2----------|
|-------------------------|---------------------------|
|-------------------------|---------------------------|


                                                E
 -----------------------------------------------------|
   E   E  E  E  E   E  E  E    E   E   E  E  E   E  E  E
|---------------------------|----------------------------|
|---------------------------|----------------------------|
|---------------------------|----------------------------|
|-11--11-11-11-11--11-11-11-|-11--11--11-11-11--11-11-11-|
|--9---9--9--9--9---9--9--9-|--9---9---9--9--9---9--9--9-|
|---------------------------|----------------------------|
|
| +W                          +H            +E   E  E  E
|-(4)-----------------------|-(4)-----------(4)--4--4--4-|
|-(5)-----------------------|-(5)-----------(5)--5--5--5-|
|-(4)-----------------------|-(4)-----------(4)--4--4--4-|
|---------------------------|----------------------------|
|---------------------------|----------------------------|
|---------------------------|----------------------------|
|
|  Q.        E +Q      Q      +E   Q.        E   E  E  E
|---------------------------|----------------------------|
|---------------------------|----------------------------|
|------------3-(3)-----4----|-(4)--3---------------------|
|--2------------------------|----------------2---2--2--2-|
|---------------------------|----------------------------|
|---------------------------|----------------------------|


  E F#
        PM----------------------------------------------
  E  E  E  E   E   E  E  E    E   E   E  E  E  E  E  E
|--------------------------|---------------------------|
|--------------------------|---------------------------|
|--------------------------|---------------------------|
|-9S11-11-11--11--11-11-11-|-11--11--11-11-11-11-11-11-|
|-7S=9--9--9---9---9--9--9-|--9---9---9--9--9--9--9--9-|
|--------------------------|---------------------------|
|
| E  Q    +E  +H             +W
|-4s=6----(6)-(6)----------|-(6)-----------------------|
|-5s=7----(7)-(7)----------|-(7)-----------------------|
|-4s=6----(6)-(6)----------|-(6)-----------------------|
|--------------------------|---------------------------|
|--------------------------|---------------------------|
|--------------------------|---------------------------|
|
| Q.       E  +Q      Q      +E   Q.        H
|--------------------------|---------------------------|
|--------------------------|---------------------------|
|----------3--(3)-----4----|-(4)--3--------------------|
|-4------------------------|----------------4----------|
|--------------------------|---------------------------|
|--------------------------|---------------------------|


 --------------------------------------------------|
   E   E  E  E  E  E  E  E    E   E  E  E  E  E  E  E
|--------------------------|--------------------------||
|--------------------------|--------------------------||
|--------------------------|--------------------------||
|-11--11-11-11-11-11-11-11-|-11--11-11-11-11-11-11-11-||
|--9---9--9--9--9--9--9--9-|--9---9--9--9--9--9--9--9-||
|--------------------------|--------------------------||
|
| +W                         +H            H
|-(6)----------------------|-(6)----------------------||
|-(7)----------------------|-(7)----------------------||
|-(6)----------------------|-(6)----------------------||
|--------------------------|--------------------------||
|--------------------------|--------------------------||
|--------------------------|--------------------------||
|
| +W                         +W
|--------------------------|--------------------------||
|--------------------------|--------------------------||
|--------------------------|--------------------------||
|-(4)----------------------|-(4)----------------------||
|--------------------------|--------------------------||
|--------------------------|--------------------------||


   Verses 1 and 2
    $
    F#
    E E E E E E E E   E E E E E E E E
||------------------|-----------------|
||o-----------------|-----------------|
||------------------|-----------------|
||------------------|-----------------|
||o-1h2-2-2p1---1h2-|-2-2p1---1h2-2-2-|
||------------2-----|-------2---------|
|
|   E E E E E E E E   E E E E E E E E
||------------------|-----------------|
||o-----------------|-----------------|
||--3h4-4-4p3---3h4-|-4-4p3---3h4-4-4-|
||------------4-----|-------4---------|
||o-----------------|-----------------|
||------------------|-----------------|
|
|   W                 W
||------------------|-----------------|
||o-----------------|-----------------|
||------------------|-----------------|
||------------------|-----------------|
||o-----------------|-----------------|
||------------------|-----------------|


  E    F#
  E  E E E +E  E E E    E  E E E E E E E
|--------------------|--------------------|
|--------------------|--------------------|
|--------------------|--------------------|
|--------------------|--------------------|
|-2p=1---------------|--------------------|
|------2-2-(2)-2-2-2-|--2--2-2-2-2-2-2-2--|
|
| E  E E E +Q    Q     +W
|--------------------|--------------------|
|----------------7---|-(7)----------------|
|-4p=3-----------6---|-(6)----------------|
|------4-4-(4)-------|--------------------|
|--------------------|--------------------|
|--------------------|--------------------|
|
|                       PM   PM|
| Q    E E +Q    Q      E  E E E E E E E
|--------------------|--------------------|
|--------------------|--------------------|
|--------------------|--------------------|
|-9\---4-4-(4)---4---|-----4-----4-4-4-4--|
|-9\---4-4-(4)---4---|-----4-----4-4-4-4--|
|-7\---2-2-(2)---2---|--2----2-2-2-2-2-2--|


                                      E   F#
  E E E E E E E E   E E E E E E E E   E E E E +E  E E E    E  E E E  E  E E E
|-----------------|-----------------|-------------------|---------------------|
|-----------------|-----------------|-------------------|---------------------|
|-----------------|-----------------|-------------------|---------------------|
|-----------------|-----------------|-------------------|---------------------|
|-1h2-2-2p1---1h2-|-2-2p1---1h2-2-2-|-2p1---------------|---------------------|
|-----------2-----|-------2---------|-----2-2-(2)-2-2-2-|--2--2-2-2--2--2-2-2-|
|
| E E E E E E E E   E E E E E E E E   E E E E +Q    Q     +H        +E  E E E
|-----------------|-----------------|-------------------|---------------6-6-6-|
|-----------------|-----------------|---------------7---|-(7)-------(7)-7-7-7-|
|-3h4-4-4p3---3h4-|-4-4p3---3h4-4-4-|-4p3-----------6---|-(6)-------(6)-6-6-6-|
|-----------4-----|-------4---------|-----4-4-(4)-------|---------------------|
|-----------------|-----------------|-------------------|---------------------|
|-----------------|-----------------|-------------------|---------------------|
|
|                                                          PM   PM|
| W                 W                 Q   E E +Q    Q      E  E E E  E  E E E
|-----------------|-----------------|-------------------|---------------------|
|-----------------|-----------------|-------------------|---------------------|
|-----------------|-----------------|-------------------|---------------------|
|-----------------|-----------------|-9---4-4-(4)---4---|-----4------4--4-4-4-|
|-----------------|-----------------|-9---4-4-(4)---4---|-----4------4--4-4-4-|
|-----------------|-----------------|-7---2-2-(2)---2---|--2----2-2--2--2-2-2-|


  F# E                          E    F#     F#sus4    F#      E
  Q  E E +H       +W            Q.   E +Q   Q    Q  Q    E  E E E
|---------------|-------------|----------------|------------------|
|---------------|-------------|----------------|------------------|
|---------------|-------------|----------------|------------------|
|------2-(2)----|-(2)---------|-2----2-(2)--2--|-2--2----2--2-2-2-|
|------2-(2)----|-(2)---------|-2----2-(2)--2--|-2--2----2--2-2-2-|
|-2--0-0-(0)----|-(0)---------|-0----0-(0)--0--|-0--0----0--0-0-0-|
|
| Q  E E +H       +H.      Q    Q.   E +Q   Q    Q.   E +Q    Q
|-6s=4-4-(4)----|-(4)---------|-4----6-(6)--7--|-7p===6-(6)---4---|
|-7s=5-5-(5)----|-(5)---------|-5----7-(7)--7--|-7----7-(7)---5---|
|-6s=4-4-(4)----|-(4)---------|-4----6-(6)--6--|-6----6-(6)---4---|
|---------------|-------------|----------------|------------------|
|---------------|-------------|----------------|------------------|
|---------------|-------------|----------------|------------------|


  E   F#                      E     F#
  Q.  E +H       +W            Q.    E  +H        +H     H
|--------------|------------|------------------|---------------||
|--------------|------------|------------------|--------------o||
|--------------|------------|------------------|---------------||
|-2---4-(4)----|-(4)--------|--9s===11-(11)----|-(11)----------||
|-2---4-(4)----|-(4)--------|--7s====9--(9)----|--(9)---------o||
|-0---2-(2)----|-(2)--------|------------------|---------------||
|
| Q.  E +H       +W           +W                  +H     H
|-4s==6-(6)----|-(6)--------|-(6)--------------|--(6)----------||
|-5s==7-(7)----|-(7)--------|-(7)--------------|--(7)---------o||
|-4s==6-(6)----|-(6)--------|-(6)--------------|--(6)----------||
|--------------|------------|------------------|---------------||
|--------------|------------|------------------|--------------o||
|--------------|------------|------------------|---------------||


   Chorus
    F
    E  E E E  E  E E E    E  E  E E E E E E
||---------------------|--------------------|
||o--------------------|--------------------|
||--5--5-5-5--5--5-5-5-|--5--5--5-5-5-5-5---|
||--3--3-3-3--3--3-3-3-|--3--3--3-3-3-3-3---|
||o--------------------|--------------------|
||---------------------|--------------------|
|
|   Q.     E +Q    Q     +E  Q.     Q   Q
||---------------------|--------------------|
||o--------------------|--------------------|
||---------5-(5)-------|--------------------|
||--3------5-(5)---3---|-(3)-5------7---3---|
||o-3--------------3---|-(3)-5------7---3---|
||---------------------|--------------------|


  Eb
  E  E E E  E  E E E    E  E  E E E E E E
|--------------------|--------------------|
|--------------------|--------------------|
|-3--3-3-3--3--3-3-3-|--3--3--3-3-3-3-3---|
|-1--1-1-1--1--1-1-1-|--1--1--1-1-1-1-1---|
|--------------------|--------------------|
|--------------------|--------------------|
|
| Q.     E +Q    Q     +E  Q.     Q   Q
|--------------------|--------------------|
|--------------------|--------------------|
|--------3-(3)-------|--------------------|
|-1------3-(3)---1---|-(1)-3------5---1---|
|-1--------------1---|-(1)-3------5---1---|
|--------------------|--------------------|


  Gm
          PM|   PM--|   PM|                  PM|   PM--|   PM|
  E E E E E E E E   E E E E E E Q    E E E E E E E E   E E E E E E Q
|-----------------|----------------|-----------------|------------------||
|-----------------|----------------|-----------------|-----------------o||
|-5h7-7-7-----7---|---7-----7p5-5--|-5h7-7-7-----7---|---7-----7p5-5----||
|-5-5-5-5-5-5-5-5-|-5-5-5-5-5-5-5--|-5-5-5-5-5-5-5-5-|-5-5-5-5-5-5-5----||
|-----------------|----------------|-----------------|-----------------o||
|-----------------|----------------|-----------------|------------------||
|
|         PM|   PM      PM|                  PM|   PM      PM|
| E E E E E E E E   E E E E E E Q    E E E E E E E E   E E E E E E Q
|-----------------|----------------|-----------------|------------------||
|-----------------|----------------|-----------------|-----------------o||
|-----------------|----------------|-----------------|------------------||
|-----------------|----------------|-----------------|------------------||
|-3h5-5-5-----5---|---5-----5p3-3--|-3h5-5-5-----5---|---5-----5p3-3---o||
|-3-3-3-3-3-3-3-3-|-3-3-3-3-3-3-3--|-3-3-3-3-3-3-3-3-|-3-3-3-3-3-3-3----||


    G
    E  E E E  E  E E E    E  E  E E E E E E
||---------------------|--------------------|
||o--------------------|--------------------|
||--7--7-7-7--7--7-7-7-|--7--7--7-7-7-7-7---|
||--5--5-5-5--5--5-5-5-|--5--5--5-5-5-5-5---|
||o--------------------|--------------------|
||---------------------|--------------------|
|
|   Q.     E +Q    Q     +E  Q.     Q   Q
||---------------------|--------------------|
||o--------------------|--------------------|
||---------7-(7)-------|--------------------|
||--5------7-(7)---5---|-(5)-7------9---5---|
||o-5--------------5---|-(5)-7------9---5---|
||---------------------|--------------------|


  F
  E  E E E  E  E E E    E  E  E E E E E E
|--------------------|--------------------|
|--------------------|--------------------|
|-5--5-5-5--5--5-5-5-|--5--5--5-5-5-5-5---|
|-3--3-3-3--3--3-3-3-|--3--3--3-3-3-3-3---|
|--------------------|--------------------|
|--------------------|--------------------|
|
| Q.     E +Q    Q     +E  Q.     Q   Q
|--------------------|--------------------|
|--------------------|--------------------|
|--------5-(5)-------|--------------------|
|-3------5-(5)---3---|-(3)-5------7---3---|
|-3--------------3---|-(3)-5------7---3---|
|--------------------|--------------------|


                                                              To Coda
  Am
          PM|   PM--|   PM|                  PM|   PM--|   PM|
  E E E E E E E E   E E E E E E Q    E E E E E E E E   E E E E E E Q
|-----------------|----------------|-----------------|-----------------||
|-----------------|----------------|-----------------|----------------o||
|-7h9-9-9-----9---|---9-----9p7-7--|-7h9-9-9-----9---|---9-----9p7-7---||
|-7-7-7-7-7-7-7-7-|-7-7-7-7-7-7-7--|-7-7-7-7-7-7-7-7-|-7-7-7-7-7-7-7---||
|-----------------|----------------|-----------------|----------------o||
|-----------------|----------------|-----------------|-----------------||
|
|         PM|   PM--|   PM|                  PM|   PM--|   PM|
| E E E E E E E E   E E E E E E Q    E E E E E E E E   E E E E E E Q
|-----------------|----------------|-----------------|-----------------||
|-----------------|----------------|-----------------|----------------o||
|-----------------|----------------|-----------------|-----------------||
|-----------------|----------------|-----------------|-----------------||
|-5h7-7-7-----7---|---7-----7p5-5--|-5h7-7-7-----7---|---7-----7p5-5--o||
|-5-5-5-5-5-5-5-5-|-5-5-5-5-5-5-5--|-5-5-5-5-5-5-5-5-|-5-5-5-5-5-5-5---||


   Bridge I
    Fm
     E E E E E E  E E   E E E E  E  E E E
||--------------------|-------------------|
||o-------------------|-------------------|
||--------------------|-------------------|
||---------8-----10---|---8-----11-10-8---|
||o-11-8-8---8-8----8-|-8---8-8---------8-|
||--------------------|-------------------|
|
|    E E E E E E  E E   E E E E  E  E E E
||--------------------|-------------------|
||o-------------------|-------------------|
||--------------------|-------------------|
||---------8-----10---|---8-----11-10-8---|
||o-11-8-8---8-8----8-|-8---8-8---------8-|
||--------------------|-------------------|


                     1.
   E E E E E E  E E   E E E E  E  E E E
|-------------------|--------------------||
|-------------------|-------------------o||
|-------------------|--------------------||
|--------8-----10---|---8-----11-10-8----||
|-11-8-8---8-8----8-|-8---8-8-----------o||
|-------------------|--------------------||
|
|  E E E E E E  E E   E E E E  E  E E E
|-------------------|--------------------||
|-------------------|-------------------o||
|-------------------|--------------------||
|--------8-----10---|---8-----11-10-8----||
|-11-8-8---8-8----8-|-8---8-8-----------o||
|-------------------|--------------------||


                                Guitar Solo I
  2.
                              D#m
  E E E E  E  E E          E      +E   E E E          E   E E E
|-----------------------------||--------------------------------|
|-----------------------------||--------------------------------|
|-----------------------------||--------------------------------|
|---8-----11-10-8-------------||----------------------4---------|
|-8---8-8------------------4--||--(4)--6-6-6--------------6-6-6-|
|-----------------------------||--------------------------------|
|
|                                                     \1/
|                                                     ~~~~~
| E E E E  E  E E          E       W
|-----------------------------||--------------------------------|
|-------------------------14--||-(14)----------------14---------|
|-----------------13b15==(13)-||-(13)r-------13b15==(13)--------|
|---8-----11-10-8-------------||--------------------------------|
|-8---8-8---------------------||--------------------------------|
|-----------------------------||--------------------------------|
  H        Q    E  a       E      +H          a       H


    E   E E E E E E          E
|--------------------------------|
|--------------------------------|
|--------------------------------|
|-------------4------------------|
|---4---6-6-6---6-6----------4---|
|--------------------------------|
|
|                            \1/
|   ~~~~~                    ~~~~~
|   W
|--------------------------------|
|-(14)---------------------------|
|-(13)r-------------13b15==(13)--|
|--------------------------------|
|--------------------------------|
|--------------------------------|
   +H..              a      +E


  D#m
   +E  E E   E     E  E E E     E  E   E   E          E  E   E  E
|---------------------------|-------------------------------------|
|---------------------------|-------------------------------------|
|---------------------------|-------------------------------------|
|------------------4------4-|------4-------4----------6--4--------|
|--(4)-6-6---6--------6-6---|--------------------------------6--4-|
|---------------------------|-------------------------------------|
|
|            \1/
|   ~~~~~~~~~~~~~~~~~~
|   W                           W
|---------------------------|-------------------------------------|
|---------------------------|------------------------11----(11)---|
|-(13)-----(13)--(13)-------|-(13)r==(13)p11-13b15==(13)---(13)r==|
|---------------------------|-------------------------------------|
|---------------------------|-------------------------------------|
|---------------------------|-------------------------------------|
   +Q.      +E    +H           +Q     +E   E  a       Q     +Q


   +E     E E   E   E  E  E  E    E  E E         E    E  E E E
|------------------------------|-------------------------------|
|------------------------------|-------------------------------|
|------------------------------|-------------------------------|
|-------------------4----------|----------------------4--------|
|--(4)----6-6---6------6--6--6-|--4--6-6---------6-------6-6-4-|
|------------------------------|-------------------------------|
|
|                                                ~~~~~~~~
|   W                             W
|------------------------------|-------------------------------|
|------------------11----11-11-|----11-x-14b16-(14)-(14)-------|
|-(13)b15-----(13)----13-------|-13----------------------------|
|------------------------------|-------------------------------|
|------------------------------|-------------------------------|
|------------------------------|-------------------------------|
   +Q.         +E   E  E  E  E    E  E E  a     +E   +H


        D#m
         +E  E E E         E  E E E     E  E E E         E  E E  E
|-----------------------------------|------------------------------|
|-----------------------------------|------------------------------|
|-----------------------------------|------------------------------|
|--------------------------4------4-|------4---4---------6--4----3-|
|--------(4)-6-6-6------------6-6---|-------------------------6--4-|
|-----------------------------------|------------------------------|
|                                       H                Q    E  E
|
|         ~~~~             ~~~~         ~~~~
|         W                             W
|-----------------------------------|------------------------------|
|-14b16-(14)-------14b16-(14)-------|-(14)-------14b16-(14)--------|
|-----------------------------------|------------------------------|
|-----------------------------------|---------------------------11-|
|-----------------------------------|------------------------------|
|-----------------------------------|------------------------------|
   a     +H         a     +H           +H         a     +Q.      E


         +E  E E E         E  E E E           E   E  E  E  E         E  E E
|-----------------------------------|---------------------------------------|
|-----------------------------------|---------------------------------------|
|--------------------------3--------|----------------------3----------------|
|--------(3)-4-4-4---------4--4-4-4-|---------3---4--4--4--4---------4--4-3-|
|--------(4)-6-6-6------------6-6-6-|---------4---6--6--6------------6--6-4-|
|-----------------------------------|---------------------------------------|
|        +E  E E E         E  E E E           E   E  E  E  E         E  E E
|
|         W                                   W
|-----------------------------------|------------11-11-13-14-14b16-(14)-----|
|-14b16-(14)-------14b16-(14)-------|-14b16-(14)----------------------------|
|-----------------------------------|---------------------------------------|
|-----------------------------------|---------------------------------------|
|-----------------------------------|---------------------------------------|
|-----------------------------------|---------------------------------------|
   a     +H         a     +H           a     +E   E  E  E  E  a     +Q.


  D#m
         +E  E E E  E     E  E  E           E  E E E E E E  E
|---------------------------------|---------------------------|
|---------------------------------|---------------------------|
|-------------------3-----------3-|------------3---3-4-3------|
|--------(3)-4-4-4--4-----4--4--4-|------------4---4-6-4-4--3-|
|--------(4)-6-6-6--------6--6----|----------------------6--4-|
|---------------------------------|---------------------------|
|        +E  E E E  E     E  E  E           E  E E E E E E  E
|
|                                    ~~~~~  ~~~~
|         W                                 H        Q   E  E
|-14b16-(14)-------14-14s13-11----|---------------------------|
|------------------------------14-|-14b16-(14)----------------|
|---------------------------------|---------------------------|
|---------------------------------|---------------------------|
|---------------------------------|---------------------------|
|---------------------------------|------------------------13-|
   a     +H         E  a  E  E  E    a     +H.           Q


   +E   E        E  E  E     E  E  E
|-------------------------------------|
|-------------------------------------|
|----------------------3--------------|
|--(3)--4--------4--4--4-----4--4--4--|
|--(4)--6--------6--6--------6--6--6--|
|-------------------------------------|
|  +E   E        E  E  E     E  E  E
|
|       |--3--|
|  +E   S  S  S  E  E  S  S  E  E  E
|-------------------------------------|
|-------------------------------------|
|-------------------------------------|
|-------------------------------------|
|-------------------------------------|
|-(13)-13h14p13-11-13-14p13-11-13-13--|


  D#m
   E    E     E    E     E  E E   E    +E   E  E     E  E     E     E  E
|-----------------------------------|------------------------------------|
|-----------------------------------|------------------------------------|
|------------------------3----------|-------------------3--------------3-|
|--3----4-----4----4-----4--4-4---3-|--(3)--4--4-----4--4-----4-----4--4-|
|--4----6-----6----6--------6-6---4-|--(4)--6--6-----6--------6-----6----|
|-----------------------------------|------------------------------------|
|  E    E     E    E     E  E E   E    +E   E  E     E  E     E     E  E
|
|  |---3---|  |---3---|
|  E  E    E  E  E    E  E  E E   E    +E   E  S  S  E  S  S  S  S  E  E
|-----------------------------------|------------------------------------|
|-----------------------------------|------------------------------------|
|-----------------------------------|------------------------------------|
|-----------------------------x/----|------------------------------------|
|-11h12h==13p12p11h==12h13p12-------|---------------11-13h14p13p11-13-13-|
|--------------------------------13-|-(13)-11-13h14----------------------|
|  W
|
|  W                                    W
|-----------------------------------|------------------------------------|
|-----------------------------------|------------------------------------|
|-----------------------------------|------------------------------------|
|-----------------------------------|------------------------------------|
|-----------------------------------|------------------------------------|
|-----------------------------------|------------------------------------|


   E  E  E     E  E    E     E         E
|-----------------------------------------||
|--------------------------------------4--||
|-----3--------3--4----3------------------||
|-----4--------4--6----4-----4------------||
|----------------------------6---------6--||
|-----------------------------------------||
|  E  E  E     E  E    E     E         E
|
|  W
|-----------------------------------------||
|-----------------------------------------||
|-------------13-16p15p==13h15------------||
|-16p15-15h16-----------------------------||
|-----------------------------------------||
|-----------------------------------------||
|  E  E  S  S  E  E  E    E  Q
|                 |---3---|
|
|                              Gtr IV
|  W
|-----------------------------------------||
|-----------------------------------------||
|------------------------------16b18-(16)-||
|-----------------------------------------||
|-----------------------------------------||
|-----------------------------------------||
   H              Q          E  a     +E


  Guitar Solo II
   Fm
    +E   E  E  E   E    E  E     E    E  E  E  E  E     E  E  E
||---------------------------------|----------------------------|
||--(4)--6--6--6---4----6--6-----6-|--4--6--6--6--7-----6--6--4-|
||---------------------------------|----------------------------|
||---------------------------------|----------------------------|
||--(6)--8--8--8---6----8--8-----8-|--6--8--8--8--9-----8--8--6-|
||---------------------------------|----------------------------|
|   +E   E  E  E   E    E  E     E    E  E  E  E  E     E  E  E
|
|   +H            +H                  W
||---------------------------------|----------------------------|
||---------------------------------|----------------------------|
||-(15)----------(15)\-------------|----------------------------|
||---------------------------------|----------------------------|
||---------------------------------|----------------------------|
||---------------------------------|----------------------------|
|
|    W                                W
||------13-13-13--14------13h14p13-|----13----------------------|
||-(16)----------------16----------|-16----14----13h14p13----13-|
||---------------------------------|----------15----------15----|
||---------------------------------|----------------------------|
||---------------------------------|----------------------------|
||---------------------------------|----------------------------|
    +E   E  E  E   E    E  S  S  E    E  E  E  E  S  S  E  E  E


  +E   E  E     E     E  E  E  E    E          E  E E   E   E E          E
|--------------------------------|----------------------4-------------------|
|-(4)--6--6-----6-----4--6--6--6-|--7----------6--7-7-------7-6----------4--|
|--------------------------------|------------------------------------------|
|--------------------------------|----------------------6-------------------|
|-(6)--8--8-----8-----6--8--8--8-|--9----------8--9-9-------9-8----------6--|
|--------------------------------|------------------------------------------|
| +E   E  E     E     E  E  E  E    E          E  E E   E   E E          E
|
|  W                                W
|--------------------------------|------------------------------------------|
|--------------------------------|------------------------------------------|
|--------------------------------|------------------------------------------|
|--------------------------------|------------------------------------------|
|--------------------------------|------------------------------------------|
|--------------------------------|------------------------------------------|
|
|                                              ~~~~~~~~~~~~~
|  W                                W
|--------------------------------|------------------------------------------|
|--------------------------------|------------------------------------------|
|-13--12-12h13p12h13----12-------|------------------------------15b17==(15)-|
|--------------------15----13----|------------------------------------------|
|-----------------------------13-|-11-13b15==(13)-----(13)r-----------------|
|--------------------------------|------------------------------------------|
   E   E  S  S  S  S  E  E  E  E    E  a      +Q.      +Q     E  a      +E


  Fm
   +E   E E E   E      E E  E     E    E  E  E  E E    E    E
|-----------------------------|-------------------------------|
|--(4)--6-6-6---4------6-6--6-|---4----6--6--6--7-6----6----4-|
|-----------------------------|-------------------------------|
|-----------------------------|-------------------------------|
|--(6)--8-8-8---6------8-8--8-|---6----8--8--8--9-8----8----6-|
|-----------------------------|-------------------------------|
|  +E   E E E   E      E E  E     E    E  E  E  E E    E    E
|
| Gtr IV
|   W                             W
|-----------------------------|-------------------------------|
|-----------------------------|-------------------------------|
|-(15)r-------(15)pb16-----15-|-(15)-[13]---12------12--------|
|-----------------------------|----------------15--------13---|
|-----------------------------|-------------------------------|
|-----------------------------|-------------------------------|
   +H          +Q.          E    +E    Q     E  Q    Q    Q
                                                |----3----|


  +E  E    E    E  E     E         E  E     E  E E E E E E   E
|---------------------------------------|------------4---------|
|-(4)-6----6----6--4-----6---------6--6-|---7--6-7-7---7-6---4-|
|---------------------------------------|----------------------|
|---------------------------------------|------------6---------|
|-(6)-8----8----8--6-----8---------8--8-|---9--8-9-9---9-8---6-|
|---------------------------------------|----------------------|
| +E  E    E    E  E     E         E  E     E  E E E E E E   E
|
|                                  ~~~~     ~~~~
|  W                                        W
|---------------------------------------|--------------------x-|
|---------------------------------------|------------------x---|
|---------------------------------------|----------------x-----|
|-------13------------------------------|----------------------|
|-15---------15---14p13p11-13b15-(13)---|-(13)-----------------|
|---------------------------------------|----------------------|
   Q     Q    Q    S  S  E  a     +Q       +H.           S S E
   |----3-----|


  Fm
  +E      E     E     E     E     E     E     E
|--------------------------------------------------|
|-(4)-----6-----6-----6-----4-----6-----6-----6----|
|--------------------------------------------------|
|--------------------------------------------------|
|-(6)-----8-----8-----8-----6-----8-----8-----8----|
|--------------------------------------------------|
| +E      E     E     E     E     E     E     E
|
|  W
|-16--16-13-16-16-16-15-13-16-16-15-13-16-16-15-13-|
|--------------------------------------------------|
|--------------------------------------------------|
|--------------------------------------------------|
|--------------------------------------------------|
|--------------------------------------------------|
   S   S  S  S  S  S  S  S  S  S  S  S  S  S  S  S


   E     E     E     E     E     E     E    E
|-----------------------------------------------|
|--4-----6-----6-----6-----7-----6-----6----4---|
|-----------------------------------------------|
|-----------------------------------------------|
|--6-----8-----8-----8-----9-----8-----8----6---|
|-----------------------------------------------|
|  E     E     E     E     E     E     E    E
|
|  W
|-16-16-15-13-16-16-15-13-16-16-15----16-13-----|
|----------------------------------16-----------|
|-----------------------------------------------|
|-----------------------------------------------|
|-----------------------------------------------|
|-----------------------------------------------|
   S  S  S  S  S  S  S  S  S  S  S  S  S  E   S


         Fm
          +E  E E E   E    E   E  E        E   E E E E E E  E
|--------------------------------------|-------------4--------|
|---------(4)-6-6-6---4----6---6--6----|---7---6-7-7---7-6--4-|
|--------------------------------------|----------------------|
|--------------------------------------|-------------6--------|
|---------(6)-8-8-8---6----8---8--8----|---9---8-9-9---9-8--6-|
|--------------------------------------|----------------------|
|         +E  E E E   E    E   E  E        E   E E E E E E  E
|
|                                          ~~~~~
|          W                               W
|-18b20==(18)-------(18)r(18)-16-18b20-|-(18)--------------15-|
|--------------------------------------|----------------------|
|--------------------------------------|----------------------|
|--------------------------------------|----------------------|
|--------------------------------------|----------------------|
|--------------------------------------|----------------------|
   a      +H         +E   +E   E  E       +H..              E


   +E   E  E     E     E  E  E  E    E     E     E  E  E  E  E  E
|---------------------------------|---------------------------------|
|--(4)--6--6-----6-----4--6--6--6-|--4-----6-----6--6--7--6--6--4---|
|---------------------------------|---------------------------------|
|---------------------------------|---------------------------------|
|--(6)--8--8-----8-----6--8--8--8-|--6-----8-----8--8--9--8--8--6---|
|---------------------------------|---------------------------------|
|  +E   E  E     E     E  E  E  E    E     E     E  E  E  E  E  E
|
|  +E   E  S  S  S  S  E  E  E  E    S  S  S  S  E  E  E  E  E  E
|-(15)-16-15h16p15p13-15----------|----------------------16-15-13---|
|------------------------16-------|-14p13h14p13----13-14------------|
|---------------------------15s13-|-------------15------------------|
|---------------------------------|---------------------------------|
|---------------------------------|---------------------------------|
|---------------------------------|---------------------------------|


  Fm
  +E   E  E  E  E  E  E  E       E  E E E   E    E E E
|----------------------------|--------------4----------||
|-(4)--6--6--6--4--6--6--6---|---7--6-7-7--------7-6---||
|----------------------------|-------------------------||
|----------------------------|--------------6----------||
|-(6)--8--8--8--6--8--8--8---|---9--8-9-9--------9-8---||
|----------------------------|-------------------------||
| +E   E  E  E  E  E  E  E       E  E E E   E    E E E
|
|                        \1/                \1.5
|  E   E  E  E  E  E  E  E      +H         +H
|-----13---------------------|-------------------------||
|-16-----14p13----13-13-13---|-(13)-------(13)---------||
|--------------15----13-13---|-(13)-------(13)---------||
|----------------------------|-------------------------||
|----------------------------|-------------------------||
|----------------------------|-------------------------||


  Bridge
   Fm
   Gtr I
    E E E E E E  E E   E E E E  E  E E E
||-------------------|-------------------|
||-------------------|-------------------|
||-------------------|-------------------|
||--------8-----10---|---8-----11-10-8---|
||-11-8-8---8-8----8-|-8---8-8---------8-|
||-------------------|-------------------|
|
|  Gtr II
|   E E E E E E  E E   E E E E  E  E E E
||-------------------|-------------------|
||-------------------|-------------------|
||-------------------|-------------------|
||--------8-----10---|---8-----11-10-8---|
||-11-8-8---8-8----8-|-8---8-8---------8-|
||-------------------|-------------------|


   E E E E E E  E E   E E E E  E  E E E
|-------------------|-------------------|
|-------------------|-------------------|
|-------------------|-------------------|
|--------8-----10---|---8-----11-10-8---|
|-11-8-8---8-8----8-|-8---8-8-----------|
|-------------------|-------------------|
|
|  E E E E E E  E E   E E E E  E  E E E
|-------------------|-------------------|
|-------------------|-------------------|
|-------------------|-------------------|
|--------8-----10---|---8-----11-10-8---|
|-11-8-8---8-8----8-|-8---8-8-----------|
|-------------------|-------------------|


   E E E E E E  E E   E E E E  E  E E E
|-------------------|-------------------|
|-------------------|-------------------|
|-------------------|-------------------|
|--------8-----10---|---8-----11-10-8---|
|-11-8-8---8-8----8-|-8---8-8---------8-|
|-------------------|-------------------|
|
|  E E E E E E  E E   E E E E  E  E E E
|-------------------|-------------------|
|-------------------|-------------------|
|-------------------|-------------------|
|--------8-----10---|---8-----11-10-8---|
|-11-8-8---8-8----8-|-8---8-8---------8-|
|-------------------|-------------------|
|
| Gtr III
|  W                  W
|-------------------|-------------------|
|-------------------|-------------------|
|-------------------|-------------------|
|-------------------|-------------------|
|-------------------|-------------------|
|-------------------|-------------------|


                            D.S. al Coda
   E E E E E E  E E   E E E E  E  E E E
|-------------------|--------------------||
|-------------------|--------------------||
|-------------------|--------------------||
|--------8-----10---|---8-----11-10-8----||
|-11-8-8---8-8----8-|-8---8-8------------||
|-------------------|--------------------||
|
|  E E E E E E  E E   E E E E  E  E E E
|-------------------|--------------------||
|-------------------|--------------------||
|-------------------|--------------------||
|--------8-----10---|---8-----11-10-8----||
|-11-8-8---8-8----8-|-8---8-8------------||
|-------------------|--------------------||
|
|  W                  W
|-------------------|--------------------||
|-------------------|--------------------||
|-------------------|--------------------||
|-------------------|--------------------||
|-------------------|--------------------||
|-------------------|--------------------||


  Outro
   &
   F#
   E E E E E E E E   E E E E E E E E   E E E E H
||-----------------|-----------------|---------------*|
||-----------------|-----------------|---------------*|
||-----------------|-----------------|---------------*|
||-----------------|-----------------|---------------*|
||-1h2-2-2p1---1h2-|-2-2p1---1h2-2-2-|-2p1-----------*|
||-----------2-----|-------2---------|-----2-2-------*|
|
|  E E E E E E E E   E E E E E E E E   E E E E H
||-----------------|-----------------|---------------*|
||-----------------|-----------------|---------------*|
||-3h4-4-4p3---3h4-|-4-4p3---3h4-4-4-|-4p3-----------*|
||-----------4-----|-------4---------|-----4-4-4\----*|
||-----------------|-----------------|---------------*|
||-----------------|-----------------|---------------*|


Duration Legend
---------------
W - whole; H - half; Q - quarter; E - 8th; S - 16th; T - 32nd; X - 64th; a - acciaccatura
+ - note tied to previous; . - note dotted; .. - note double dotted
Uncapitalized letters represent notes that are staccato (1/2 duration)
Irregular groupings are notated above the duration line
Duration letters will always appear directly above the note/fret number it represents the
duration for.  Duration letters with no fret number below them represent rests.  Multi-
bar rests are notated in the form Wxn, where n is the number of bars to rest for.  Low
melody durations appear below the staff

Tablature Legend
----------------
 h   - hammer-on
 p   - pull-off
 b   - bend
 pb  - pre-bend
 r   - bend release (if no number after the r, then release immediately)
 /\  - slide into or out of (from/to "nowhere")
 s   - legato slide
 S   - shift slide
  - natural harmonic
[n]  - artificial harmonic
n(n) - tapped harmonic
 ~   - vibrato
 tr  - trill
 T   - tap
 TP  - trem. picking
 PM  - palm muting
\n/  - tremolo bar dip; n = amount to dip
 \n  - tremolo bar down
 n/  - tremolo bar up
/n\  - tremolo bar inverted dip
 =   - hold bend; also acts as connecting device for hammers/pulls
 <>  - volume swell (louder/softer)
 x   - on rhythm slash represents muted slash
 o   - on rhythm slash represents single note slash

Misc Legend
-----------
 |  - bar
||  - double bar
||o - repeat start
o|| - repeat end
*|  - double bar (ending)
 :  - bar (freetime)
 $  - Segno
 &  - Coda
Tempo markers -  = BPM(8/16=s8/s16), where s8 = swing 8ths, s16 = swing 16ths


***************************************************************************************
* Generated using Power Tab Editor by Brad Larsen - http://powertab.guitarnetwork.org *
***************************************************************************************
comments
We did not receive enough feedback on this tab! Please rate:
print report bad tab
1 2 3 4 5
I want to post or [tab]
guest
You may want to rate the tab now too:
select rating
Please do not post tabs as comments. Select "correction" instead!