Oops, an error
Loading. Please wait.

The Clairvoyant Bass Tab

ver1
ver1

Whole song

More versions @911Tabs.com
17,477 views 60 this week
4 commentsread comments
1 2 3 4 5
accurate
x 13
Autoscroll
+/-
esc
set tempo
stop
WARNING: You are trying to view
                                    content from Ultimate-Guitar.com
                                    in an unauthorized application,
                                    which is prohibited.

                                    Please use an official Ultimate
                                    Guitar Tabs application for iPhone,
                                    iPad or Android to access legitimate
                                    chords, guitar, bass, and drum tabs
                                    from Ultimate-Guitar.com database.

                                    Type "ultimate guitar tabs" in Apple
                                    App Store's or Android Market's
                                    search to find the application.
                                         _
|  |>    /\   |\|     |\/|   /|  |  |\  |_  |\|
|  | \  /__\  | |     |  |   \|  |  |/  |_  | |

Bass tab
Transcribed by G. Crisan ( crisan@shadow.net )

All textual notes refer to the tab ABOVE it. Any comments, suggestions,
or errors refering to the tab below that should be brought to my attention,
please e-mail me.

Tab explanations
-----------------------------------------------------
>   Accent                 |      /   Slide up
.   Staccatto              |      \   Slide down
h   Hammer-on/ pull off    |      :   Repeat
?   Harmonic               |      ~   slight bend
-----------------------------------------------------


The Clairvoyant ( Harris )
 ( From the album " Seventh Son of a Seventh Son " )


-----2-----2-------0-----0--------------------------------------2-----2-------|
-0-0---0-0---0-0-0---0-0----0-0--4--0-0-0-0-0-0-0-0-0-0-0-0-0-0---0-0---0-0-0-|
---x--------------------------x---------x---x-x---x-x-x-x-x-------x-----x---x-|
------------------------------------------------------------------------------|
( x = dead note)

-0-----0------------------------------------2-----2-------0-----0-------------|
---0-0---0-0-4--0-0-0-0-0-0-0-0-0-0-0-0-0-0---0-0---0-0-0---0-0---0-0-4-0-0-0-|
-x---x-x-----x----x---x-x-x-x-x---x-x-x---x-----x-------------x-----x---x-x-x-|
------------------------------------------------------------------------------|
                                         Rhythm guitar enters

-----------------------2-----2-------0-----0---------------------------------|
-0-0-0-0-0-0-0-0-0-0-0---0-0---0-0-0---0-0---0-0-4-0-0-0-0-0-0-0-0-0-0-0-0-0-|
-x-x-x-x-x---x-x---------x-x-----------x-------------x-x-x-x-x-x-x-x-x---x-x-|
-----------------------------------------------------------------------------|

-2-----2-------0-----0-----------------------------------2-----2-------0----0-|
---0-0---0-0-0---0-0---0-0-4-0-0-0-0-0-0-0-0-0-0-0-0-0-0---0-0---0-0-0---0-0--|
---x-x-------x-x---x-----x-x---x-x---x-x-x-x-x-x-x-x---x-----x-x---x-x-x---xx-|
------------------------------------------------------------------------------|
Lead Guitar enters

------------------------------------------------------------------------------|
-0-0-0-4-0-0-0-0-0-0--5-5-5-5-4-0------------5-5-5-5-4-0------------5-5-5-5-4-|
-x---x-x---x---x-x----------------3-3-3-3-3--------------3-3-3-3-3------------|
------------------------------------------------------------------------------|

-------------------------------------------2-----2-------0-----0-------------|
-0------------5-5-5-5-4-0--------------0-0---0-0---0-0-0---0-0---0-0-4-0-0-0-|
---5-5-5-5-5--------------5-5-5-5-5------------------------------------------|
-----------------------------------------------------------------------------|

-----------------------2-----2------0----0------------------------------------|
-0-0-0-0-0-0-0-0-0-0-0---0-0---0-0-0--0-0--0-0-4-0-0-0-0-0--5-5-5-5-4-0-------|
------------------------------------------------------------------------3-3-3-|
------------------------------------------------------------------------------|

-----------------------------------------------------------------------------|
------5-5-5-5-4-0-------------5-5-5-5-4-0------------5-5-5-5-4-0-------------|
-3-3---------------3-3-3-3-3---------------5-5-5-5-5-------------5-5-5-5-5---|
-----------------------------------------------------------------------------|

-----------------------------------------------------------------------------|
-0-----0-----0---0-----0-----0---0-------------------------------------------|
---5-5---5-5---5---5-5---5-5---5---3-3-3--3-3-3--3-3--3-3-3--3-3-3--3-3------|
-------------------------------------------------------------------------3-3-|
Vocals enter *

-----------------------------------------------------------------------------|
---------------------------------------------------------------------0-----0-|
-----------------------------------1-1-1-1-1-1-1-1--3-3-3-3-3-3-3-3----5-5---|
-3--3-3-3--3-3--3-3-3--3-3-3--3-3--------------------------------------------|

------------------------------------------------------------------------------|
------0---0-----0-----0---0---------------------------------------------------|
--5-5---5---5-5---5-5---5----3-3-3--3-3-3--3-3--3-3-3--3-3-3--3-3-------------|
-------------------------------------------------------------------3-3-3--3-3-|

--------------------------------------------------------------2-----2-----2--|
----------------------------------------------------------------0-0---0-0----|
----------------------------1-1-1-1-1-1-1-1--3-3-3-3-3-3-3-3-----------------|
-3--3-3--3-3-3--3-3-3--3-3---------------------------------------------------|

---3-----3-----3---0-----0-----0---2-----2-----2---2-----2-----2---3-----3---|
-0---0-0---0-0---0---0-0---0-0---0---0-0---0-0---0---0-0---0-0---0---0-0---0-|
-----------------------------------------------------------------------------|
-----------------------------------------------------------------------------|

---3---0-----0-----0-----0---0--0--------------------------------------------|
-0---0---0-0---0-0---0-0---0---0--0--0-----0-----0---0-----0-----0---0-------|
---------------------------------------5-5---5-5---5---5-5---5-5---5---3-3-3-|
-----------------------------------------------------------------------------|

------------------------------------------------------------------------------|
------------------------------------------------------------------------------|
-3-3-3--3-3--3-3-3--3-3-3--3-3----------------------------------------1-1-1-1-|
--------------------------------3-3-3--3-3-3--3-3--3-3-3--3-3-3--3-3----------|

------------------------------------------------------------------------------|
---------------------------0-----0-----0---0----0----0---0--------------------|
-1-1-1-1--3-3-3-3-3-3-3-3----5-5---5-5---5---5-5--5-5--5----3-3-3--3-3-3--3-3-|
------------------------------------------------------------------------------|

-----------------------------------------------------------------------------|
-----------------------------------------------------------------------------|
-3-3-3--3-3-3--3-3----------------------------------------1-1-1-1-1-1-1-1--3-|
--------------------3-3-3--3-3-3--3-3--3-3-3--3-3-3--3-3---------------------|

----------------2-----2-----2---3-----3----3---0-----0-----0---2-----2-----2-|
------------------0-0---0-0---0---0-0---0-0--0---0-0---0-0---0---0-0---0-0---|
-3-3-3-3-3-3-3---------------------------------------------------------------|
-----------------------------------------------------------------------------|

---3-----3-----3---0-----0-----0-----0---0---0-----0-----0-----0---1-----1---|
-0---0-0---0-0---0---0-0---0-0---0-0---0---0---0-----0-0---0-0---0---0-0---0-|
-----------------------------------------------------------------------------|
-----------------------------------------------------------------------------|

---1--------------------0-----0-----0---0-----0-----0---1-----1-----1--------|
-0---0--3-0-0-3-0-0-3-0---0-0---0-0---0---0-0---0-0---0---0-0---0-0---0--3-0-|
-----------------------------------------------------------------------------|
-----------------------------------------------------------------------------|

-----------------------------------------------------------------------------|
-0--3-0-0--3-0-0--3-0--3-0--3-0----------------------------------------------|
--------------------------------5-5-5--5-5-5--5-5-5-555--3-3-3--3-3-3--3-3-3-|
-----------------------------------------------------------------------------|
                                 "There's a time to live..."

-----------------------------------------------------------------------------|
-----------------------.-.-.-.-----------------------------------------------|
555--5-5-5--5-5-5--5-5-5-3-5-5--5-5-5--5-5-5--5-5-5-555--3-3-3--3-3-3--3-3-3-|
-----------------------------------------------------------------------------|

------------------------------------------------------------------------------|
-------------------------.-.--.-.---------------------------------------------|
555--5-5-5--5-5-5--5-5-5-3-3--5-5--5-5-5--5-5-5--5-5-5-555--3-3-3--3-3-3--3-3-|
------------------------------------------------------------------------------|

-----------------------------------------------------------------------------|
-----------------------------.-.--.-.----------------------------------------|
-3-555--5-5-5--5-5-5--5-5-5--3-3--5-5--5-5-5--5-5-5--5-5-5-555--3-3-3--3-3-3-|
-----------------------------------------------------------------------------|

-----------------------------------------------|
-------------------------------------.-.-------|
-3-3-3-555--5-5-5--5-5-5--5-5-5-555--3-3-2-0-3-|
-----------------------------------------------|

-----5-----5-------3-----3-----2-----------------------------5-----5-------3-|
-3-3---3-3---3-3-3---3-3---3-3---3-3-3-3-3-3-3-3-3-3-3-3-3-3---3-3---3-3-3---|
-----------------------------------------------------------------------------|
-----------------------------------------------------------------------------|
Guitar Solo

-----3-----2-----------------------------5-----5-------3-----3----2-----------|
-3-3---3-3---3-3-3-3-3-3-3-3-3-3-3-3-3-3---3-3---3-3-3---3-3---3-3--3-3-3-3-3-|
------------------------------------------------------------------------------|
------------------------------------------------------------------------------|

-------------------5-----5--------3-----3-----2------------------3-3-3-3-2-0-|
-3-3-3-3-3-3-3-3-3---3-3---3-3-3----3-3---3-3---3-3-3-3-3-3-3-3--------------|
-----------------------------------------------------------------------------|
-----------------------------------------------------------------------------|

----------3-3-3-3-2-0------------3-3-3-3-2-0------------3-3-3-3-2-0-----------|
0-0-0-0-0-------------0-0-0-0-0--------------2-2-2-2-2--------------2-2-2-2-2-|
------------------------------------------------------------------------------|
------------------------------------------------------------------------------|
                                                                    End solo

-----------------------------------------------------------------------------|
-0-----0-----0---0-----0-----0---0-------------------------------------------|
---5-5---5-5---5---5-5---5-5---5---3-3-3--3-3-3--3-3--3-3-3--3-3-3--3-3------|
-------------------------------------------------------------------------3-3-|

-----------------------------------------------------------------------------|
---------------------------------------------------------------------0-----0-|
-----------------------------------1-1-1-1-1-1-1-1--3-3-3-3-3-3-3-3----5-5---|
-3--3-3-3--3-3--3-3-3--3-3-3--3-3--------------------------------------------|

------------------------------------------------------------------------------|
------0---0-----0-----0---0---------------------------------------------------|
--5-5---5---5-5---5-5---5----3-3-3--3-3-3--3-3--3-3-3--3-3-3--3-3-------------|
-------------------------------------------------------------------3-3-3--3-3-|

--------------------------------------------------------------2-----2-----2--|
----------------------------------------------------------------0-0---0-0----|
----------------------------1-1-1-1-1-1-1-1--3-3-3-3-3-3-3-3-----------------|
-3--3-3--3-3-3--3-3-3--3-3---------------------------------------------------|

---3-----3-----3---0-----0-----0---2-----2-----2---2-----2-----2---3-----3---|
-0---0-0---0-0---0---0-0---0-0---0---0-0---0-0---0---0-0---0-0---0---0-0---0-|
-----------------------------------------------------------------------------|
-----------------------------------------------------------------------------|

---3---0-----0-----0-----0---0---0----0-----0-----0---1-----1-----1----------|
-0---0---0-0---0-0---0-0---0---0---0----0-0---0-0---0---0-0---0-0---0--3-0-0-|
-----------------------------------------------------------------------------|
-----------------------------------------------------------------------------|

-------------0-----0-----0---1-----1-----1-----------------------------------|
-3-0-0--3-0----0-0---0-0---0---0-0---0-0---0--3-0-0--3-0-0--3-0--3-0--3-0----|
-----------------------------------------------------------------------------|
-----------------------------------------------------------------------------|

-----------------------------------------------------------------------------|
--------------------------------------------------------------------.-.-.-.--|
5-5-5--5-5-5--5-5-5-555--3-3-3--3-3-3--3-3-3-555--5-5-5--5-5-5--5-5-5-3-5-5--|
-----------------------------------------------------------------------------|

-----------------------------------------------------------------------------|
----------------------------------------------------------------------.-.--.-|
5-5-5--5-5-5--5-5-5-555--3-3-3--3-3-3--3-3-3-555--5-5-5--5-5-5--5-5-5-3-3--5-|
-----------------------------------------------------------------------------|

------------------------------------------------------------------------------|
.-----------------------------------------------------------------------------|-.
5--3-3-3--3-3-3--3-3-3-333--1-1-1--1-1-1--1-1-1-333--3-3-3--3-3-3--3-3-3--1-1-|
------------------------------------------------------------------------------|

-----------------------------------------------------------------------------|
.-.--------------------------------------------------------------------------|
3-3---3-3-3--3-3-3--3-3-3-333--1-1-1--1-1-1--1-1-1-333--3-3-3--3-3-3--3-3-3--|
-----------------------------------------------------------------------------|

-----------------|
------.-.--------|
-333--1-1-0---1--|
------------1----|


-----2-----2-------0-----0--------------------------------------2-----2-------|
-0-0---0-0---0-0-0---0-0----0-0--4--0-0-0-0-0-0-0-0-0-0-0-0-0-0---0-0---0-0-0-|
------------------------------------------------------------------------------|
------------------------------------------------------------------------------|
Outro

-0-----0----------------------------------------------------------------------|
---0-0---0-0-4--0-0-0-0-0-0-0-0-0-0-0-0-0-0--5-5-5-5-4-0------------5-5-5-5-4-|
---------------------------------------------------------3-3-3-3-3------------|
------------------------------------------------------------------------------|

------------------------------------------------------------------------------|
-0------------5-5-5-5-4-0------------5-5-5-5-4-0--5-4-0-5-4-0-5-4-0-5-4-0-5-4-|
---3-3-3-3-3--------------5-5-5-5-5-------------------------------------------|
------------------------------------------------------------------------------|

---.-.-.--|
0--0-0-0--|
----------|
----------|

* I am aware that the notes here are the same (5,0) (lines 69 and 70).
  I wrote it this way for the effect it generates, which is that of
  pedal tones. If you listen carefully to the recording, you might be
  able to hear what I mean.
4 comments total. Showing first comments.
0 reply
andyrobsonetc wrote on September 14 2004, 12:00 am

spot on, great tab, cheers

0 reply
skater710 wrote on September 13 2007, 12:22 am

I think you should get rid of the opens. I don't think Steve does that.

+1 reply
Centahne wrote on February 16 2010, 07:02 am

The intro is

G:|-------------------------|-----------------------------------------------|
D:|---7-7---5-5?--4-4-------|-555540----555540------555540------555540------|
A:|-55-5?555-5-555-5-5-5t5t-|-------3t3t------3t3t---------5t5t--------5t5t-|
E:|-------------------------|-----------------------------------------------|

I want to post or [tab]
guest
You may want to rate the tab now too:
select rating
Please do not post tabs as comments. Select "correction" instead!