Oops, an error
Loading. Please wait.

The Nomad Tab

ver3
ver3

Solo

Whole song

More versions @911Tabs.com
2,892 views 9 this week
no commentswrite comment
1 2 3 4 5
excellent!
x 7
Autoscroll
+/-
esc
set tempo
stop
WARNING: You are trying to view
                                    content from Ultimate-Guitar.com
                                    in an unauthorized application,
                                    which is prohibited.

                                    Please use an official Ultimate
                                    Guitar Tabs application for iPhone,
                                    iPad or Android to access legitimate
                                    chords, guitar, bass, and drum tabs
                                    from Ultimate-Guitar.com database.

                                    Type "ultimate guitar tabs" in Apple
                                    App Store's or Android Market's
                                    search to find the application.
                 Iron Maiden- The Nomad


p   = pull-off             x   = dead note (left hand)
h   = hammer-on            *   = palm mute (right hand)
t   = tap-on               X\ = pick slide
~   = vibrato            
/   = slide up             ah = artificial harmonic
\   = slide down          ( ) = ghost note/bend note
^   = bend                 TR = trill 
^r = bend and release      tm = tremo picking 


INTRO:
e)|------------------------------------|------------------------------|
B)|------------------------------------|------------------------------|
G)|-----------9/10/9--------9------9---|------9/10/9-------7------7---| 
D)|-----------9/10/9--------9------9---|------9/10/9-------7------7---| 
A)|-----------7/-8/7--------7------7---|------7/-8/7-------5------5---|
E)|-0-0-0-0--------------0-0----0-0----|-0-0-----------0-0----0-0-----|


e)|------------------------------------|-------------------------------|
B)|------------------------------------|-------------------------------|
G)|-----------9/10/9--------9------9---|------9/10/9-------5-----------|
D)|-----------9/10/9--------9------9---|------9/10/9-------5------7----|
A)|-----------7/-8/7--------7------7---|------7/-8/7-------3------7----|
E)|-0-0-0-0--------------0-0----0-0----|-0-0-----------0-0----0-0-5----|

e)|-----------------|
B)|-----------------|
G)|---------9/10/9--|
D)|---------9/10/9--|
A)|---------7/-8/7--|
E)|-0-0-0-0---------|

e)|-----------------------------|--------------------------|
B)|--12-12-12-12-13-12--10--12--|--12-12-12-12-13--12--10--|  guitar 1
G)|-----------------------------|--------------------------| 
D)|---9--9--9--9-10--9---7---9--|---9--9--9--9-10---9---7--|  guitar 2
A)|-----------------------------|--------------------------|
E)|-----------------------------|--------------------------|

e)|-----------------------------|--------------------------|
B)|--12-12-12-12-13-12--10--12--|--12-12-12-12-13--12--10--|  guitar 1
G)|-----------------------------|--------------------------| 
D)|---9--9--9--9-10--9---7---9--|---9--9--9--9-10---9---7--|  guitar 2
A)|-----------------------------|--------------------------|
E)|-----------------------------|--------------------------|

e)|-----------------------------|--------------------------|
B)|--12-12-12-12-13-12--10--12--|--12-12-12-12-13--12--10--|  guitar 1
G)|-----------------------------|--------------------------| 
D)|---9--9--9--9-10--9---7---9--|---9--9--9--9-10---9---7--|  guitar 2
A)|-----------------------------|--------------------------|
E)|-----------------------------|--------------------------|

e)|-----------------------------|--------------------------|
B)|--12-12-12-12-13-12--10--12--|--12-12-12-12-13--12--10--|  guitar 1
G)|-----------------------------|--------------------------| 
D)|---9--9--9--9-10--9---7---9--|---9--9--9--9-10---9---7--|  guitar 2
A)|-----------------------------|--------------------------|
E)|-----------------------------|--------------------------|

e)|-----------------------------|--------------------------|
B)|--12-12-12-12-13-12--10--12--|--12-12-12-12-13--12--10--|  guitar 1
G)|-----------------------------|--------------------------| 
D)|---9--9--9--9-10--9---7---9--|---9--9--9--9-10---9---7--|  guitar 2
A)|-----------------------------|--------------------------|
E)|-----------------------------|--------------------------|

e)|-----------------------------|--------------------------|
B)|--12-12-12-12-13-12--10--12--|--12-12-12-12-13--12--10--|  guitar 1
G)|-----------------------------|--------------------------| 
D)|---9--9--9--9-10--9---7---9--|---9--9--9--9-10---9---7--|  guitar 2
A)|-----------------------------|--------------------------|
E)|-----------------------------|--------------------------|



e)|------------------------------------------------------------------|
B)|--12--------------7------8------7------12--------7------8------7--|
G)|------------------------------------------------------------------| 
D)|------------------------------------------------------------------| 
A)|------------------------------------------------------------------|
E)|------------------------------------------------------------------|

______________________________________________________________________


e)|-------------------|-------------------------------|
B)|--12h13p12----12---|---12h13p12----15-13-12----12--|
G)|-----------14------|------------14----------14-----| 
D)|-------------------|-------------------------------|
A)|-------------------|-------------------------------|
E)|-------------------|-------------------------------|

e)|-------------------|-------------------------------|
B)|--12h13p12----12---|---12h13p12----15-13-12----12--|
G)|-----------14------|------------14----------14-----| 
D)|-------------------|-------------------------------|
A)|-------------------|-------------------------------|
E)|-------------------|-------------------------------|

e)|-------------------|-------------------------------|
B)|--12h13p12----12---|---12h13p12----15-13-12----12--|
G)|-----------14------|------------14----------14-----| 
D)|-------------------|-------------------------------|
A)|-------------------|-------------------------------|
E)|-------------------|-------------------------------|

e)|-------------------|-------------------------------|
B)|--12h13p12----12---|---12h13p12----15-13-12----12--|
G)|-----------14------|------------14----------14-----| 
D)|-------------------|-------------------------------|
A)|-------------------|-------------------------------|
E)|-------------------|-------------------------------|
_______________________________________________________

VERSE:
          
e)|----------------------------------------------------------------|
B)|----------------------------------------------------------------|
G)|---4------------------------------------------------------------| 
D)|---4------------------------------------------------------4-----| 
A)|---2------------------------------------------------------4-----|
E)|----------------------------------------------------------2-----|

e)|----------------------------------------------------------------|
B)|----------------------------------------------------------------|
G)|----------------------------------------------------------4-----| 
D)|---4--------------------7---------7-----------------------4-----| 
A)|---4--------------------7---------7-----------------------2-----|
E)|---2--------------------5---------5-----------------------------|

e)|----------------------------------------------------------------|
B)|----------------------------------------------------------------|
G)|---4------------------------------------------------4-----------| 
D)|---4------------------------------------------------4-----4-----| 
A)|---2------------------------------------------------2-----4-----|
E)|----------------------------------------------------------2-----|

e)|----------------------------------------------------------------|
B)|----------------------------------------------------------------|
G)|------------------------7---------7-----------------------4-----| 
D)|---4--------------------7---------7-----------------------4-----| 
A)|---4--------------------5---------5-----------------------2-----|
E)|---2------------------------------------------------------------|

e)|----------------------------------------------------------------|
B)|----------------------------------------------------------------|
G)|---4------------------------------------------------------------| 
D)|---4------------------------------------------------------4-----| 
A)|---2------------------------------------------------------4-----|
E)|----------------------------------------------------------2-----|

e)|----------------------------------------------------------------|
B)|----------------------------------------------------------------|
G)|----------------------------------------------------------4-----| 
D)|---4--------------------7---------7-----------------------4-----| 
A)|---4--------------------7---------7-----------------------2-----|
E)|---2--------------------5---------5-----------------------------|

e)|----------------------------------------------------------------|
B)|----------------------------------------------------------------|
G)|---4------------------------------------------------4-----------| 
D)|---4------------------------------------------------4-----4-----| 
A)|---2------------------------------------------------2-----4-----|
E)|----------------------------------------------------------2-----|

e)|----------------------------------------------------------------|
B)|----------------------------------------------------------------|
G)|------------------------7---------7-----------------------------| 
D)|---4--------------------7---------7-----------------------------| 
A)|---4--------------------5---------5-----------------------------|
E)|---2------------------------------------------------------------|
____________________________________________________________________



CHORUS:

No - mad, _________ you’re the rider so myst - er - i - ous.________________
e)|------------------|-----------------|-------------------|----------------|
B)|------------------|-----------------|-------------------|--7-8-10-10-8-7-|
G)|---9----9-9-9-9-9-|--9------/4---5--|--7-----7--7----7--|7---------------|
D)|---7----7-9-9-9-9-|--9------/4---5--|--7-----7--7----7--|7-4-5--7--7-5-4-|
A)|---7----7-7-7-7-7-|--7------/2---3--|--5-----5--5----5--|5---------------|
E)|---0----0-0-0-0-0-|--0--------------|-------------------|----------------|

 No - mad, _________ you’re the spi - rit that men fear in us.______________
e)|------------------|-----------------|-------------------|----------------|
B)|------------------|-----------------|-------------------|--7-8-10-10-8-7-|
G)|---9----9-9-9-9-9-|--9------/4------|-------------------|----------------|
D)|---7----7-9-9-9-9-|--9------/4---5--|--7-----7--7----7--|7-4-5--7--7-5-4-|
A)|---7----7-7-7-7-7-|--7------/2---5--|--7-----7--7----7--|7---------------|
E)|---0----0-0-0-0-0-|--0-----------3--|--5-----5--5----5--|5---------------|

  No - mad, _______ you’re the ri - der of the des -ertsands.______________  
e)|------------------|-----------------|-------------------|----------------|
B)|------------------|-----------------|-------------------|--7-8-10-10-8-7-|
G)|---9----9-9-9-9-9-|--9------/4---5--|--7-----7--7----7--|7---------------|
D)|---7----7-9-9-9-9-|--9------/4---5--|--7-----7--7----7--|7-4-5--7--7-5-4-|
A)|---7----7-7-7-7-7-|--7------/2---3--|--5-----5--5----5--|5---------------|
E)|---0----0-0-0-0-0-|--0--------------|-------------------|----------------|

   No - man´s_______ ev - er un - der - stood your ge - ni - us.____________
e)|------------------|-----------------|-------------------|----------------|
B)|------------------|-----------------|-------------------|--7-8-10-10-8-7-|
G)|---9----9-9-9-9-9-|--9------/4------|-------------------|----------------|
D)|---7----7-9-9-9-9-|--9------/4---5--|--7-----7--7----7--|7-4-5--7--7-5-4-|
A)|---7----7-7-7-7-7-|--7------/2---5--|--7-----7--7----7--|7---------------|
E)|---0----0-0-0-0-0-|--0-----------3--|--5-----5--5----5--|5---------------|
____________________________________________________________________________
(Solo)
VERSE:

e)|----------------------------------------------------------------|
B)|----------------------------------------------------------------|
G)|---4------------------------------------------------------------| 
D)|---4------------------------------------------------------4-----| 
A)|---2------------------------------------------------------4-----|
E)|----------------------------------------------------------2-----|

e)|----------------------------------------------------------------|
B)|----------------------------------------------------------------|
G)|----------------------------------------------------------4-----| 
D)|---4--------------------7---------7-----------------------4-----| 
A)|---4--------------------7---------7-----------------------2-----|
E)|---2--------------------5---------5-----------------------------|

e)|----------------------------------------------------------------|
B)|----------------------------------------------------------------|
G)|---4------------------------------------------------------------| 
D)|---4------------------------------------------------------4-----| 
A)|---2------------------------------------------------------4-----|
E)|----------------------------------------------------------2-----|

e)|----------------------------------------------------------------|
B)|----------------------------------------------------------------|
G)|------------------------7---------7-----------------------4-----| 
D)|---4--------------------7---------7-----------------------4-----| 
A)|---4--------------------5---------5-----------------------2-----|
E)|---2------------------------------------------------------------|

e)|----------------------------------------------------------------|
B)|----------------------------------------------------------------|
G)|---4------------------------------------------------------------| 
D)|---4------------------------------------------------------4-----| 
A)|---2------------------------------------------------------4-----|
E)|----------------------------------------------------------2-----|

e)|----------------------------------------------------------------|
B)|----------------------------------------------------------------|
G)|----------------------------------------------------------4-----| 
D)|---4--------------------7---------7-----------------------4-----| 
A)|---4--------------------7---------7-----------------------2-----|
E)|---2--------------------5---------5-----------------------------|

e)|----------------------------------------------------------------|
B)|----------------------------------------------------------------|
G)|---4------------------------------------------------4-----------| 
D)|---4------------------------------------------------4-----4-----| 
A)|---2------------------------------------------------2-----4-----|
E)|----------------------------------------------------------2-----|

e)|----------------------------------------------------------------|
B)|----------------------------------------------------------------|
G)|------------------------7---------7-----------------------------| 
D)|---4--------------------7---------7-----------------------------| 
A)|---4--------------------5---------5-----------------------------|
E |---2------------------------------------------------------------|

(CHORUS)
 Middle:

e)|-------|----------------|-------------|-------------------|--------------|
B)|---0---|----------------|-------------|-------------------|--------------|
G)|---0---|----------------|-------------|------4---4---4----|-----4--4--4--|
D)|---2---|--2--2--2--2----|----2--2--2--|----5---5---5---5--|----5--5--5--5|
A)|---2---|---2--2--2--2---|---2--2--2---|--3----------------|--3-----------|
E)|---0---|----------------|--0----------|-------------------|--------------|

e)|----------------|----------------|----------------|-----------------|
B)|----------------|----------------|----------------|-----------------|
G)|-----5--5--5----|-----5--5--5----|----------------|-----------------|
D)|----5--5--5--5--|----5--5--5--5--|-----4--4--4----|-----4--4--4-----|
A)|--0-------------|--0-------------|----2--2--2--2--|----2--2--2--2---|
E)|----------------|----------------|--0-------------|--0--------------|

e)|---------------|-------------------|-----------------|----------------|
B)|---------------|-------------------|-----------------|----------------|
G)|9--------------|--9--11--12--11----|--11-----12--12--|----------11--12|
D)|---------------|-------------------|-----------------|----------------|
A)|---------------|-------------------|-----------------|----------------|
E)|---------------|-------------------|-----------------|----------------|

e)|---------------|-------------------|-----------------|--------------|
B)|---------------|-------------------|-----------------|--------------|
G)|9--------------|--9--11--12--11----|--11-----12--12--|------------4/|
D)|---------------|-------------------|-----------------|--------------|
A)|---------------|-------------------|-----------------|--------------|
E)|---------------|-------------------|-----------------|--------------|

e)|---------------|-------------------|-----------------|----------------|
B)|---------------|-------------------|--10-------------|----------12----|
G)/9--------------|--9--11--12--11--12|---------12--12--|--------------12|
D)|---------------|-------------------|-----------------|----------------|
A)|---------------|-------------------|-----------------|----------------|
E)|---------------|-------------------|-----------------|----------------|

e)|---------------|-------------------|-----------------|----------------|
B)|---------------|-------------------|-----------------|----------------|
G)|9--------------|--9--11--12--11----|--11--12---9-----|----------------|
D)|---------------|-------------------|-----------------|----------------|
A)|---------------|-------------------|-----------------|----------------|
E)|---------------|-------------------|-----------------|----------------|

e)|---------------|-----------------|---------------|----------------|
B)|---------------|-----------------|10---8--8------|----------12----|
G)|9--------------|9--11--12--11--12|---------------|--------------12|
D)|---------------|-----------------|---------------|----------------|
A)|---------------|-----------------|---------------|----------------|
E)|---------------|-----------------|---------------|----------------|

e)|---------------|-----------------|-------------------|------------|
B)|---------------|-----------------|-------------------|------------|
G)|9--------------|9--11--12--11--12|11--12--11--9--7--9|4---------4/|
D)|---------------|-----------------|-------------------|------------|
A)|---------------|-----------------| ------------------|------------|
E)|---------------|-----------------|-------------------|------------|


e)|------------------------|------------------------|
B)|----12-12-12-10-12-12-12|----12-12-12-10-12-12-12|
G)|--9---------------------|--9---------------------|
D)|------------------------|------------------------|
A)|------------------------|------------------------|
E)|------------------------|------------------------|

e)|--------------------------|-----10--------------------|
B)|----12-12-12-10-12-12-12--|--13----13-12-10-----------|
G)|--9-----------------------|-----------------12-11-12--|
D)|--------------------------|---------------------------|
A)|--------------------------|---------------------------|
E)|--------------------------|---------------------------|


e)|------------------------|------------------------|
B)|----12-12-12-10-12-12-12|----12-12-12-10-12-12-12|
G)|--9---------------------|--9---------------------|
D)|------------------------|------------------------|
A)|------------------------|------------------------|
E)|------------------------|------------------------|

e)|--------------------------|-----10--------------------|
B)|----12-12-12-10-12-12-12--|--13----13-12-10-----------|
G)|--9-----------------------|-----------------12-11-12--|
D)|--------------------------|---------------------------|
A)|--------------------------|---------------------------|
E)|--------------------------|---------------------------|


e)|---------------|-----------------|---------------|----------------|
B)|---------------|-----------------|10-------------|----------------|
G)|9--------------|9--11--12--11--12|-------12--12--|----------11--12|
D)|---------------|-----------------|---------------|----------------|
A)|---------------|-----------------|---------------|----------------|
E)|---------------|-----------------|---------------|----------------|

e)|---------------|-----------------|---------------|------------------|
B)|---------------|-----------------|---------------|------------------|
G)|9--------------|9--11--12--11--12|11------12--9--|------------------|
D)|---------------|-----------------|---------------|------------------|
A)|---------------|-----------------|---------------|------------------|
E)|---------------|-----------------|---------------|------------------|

e)|---------------|-----------------|---------------|---------------------|
B)|---------------|-----------10----|--------10-----|10--12--8------------|
G)|9--------------|9--11--12------12|11--12---------|-----------11--12--12|
D)|---------------|-----------------|---------------|---------------------|
A)|---------------|-----------------|---------------|---------------------|
E)|---------------|-----------------|---------------|---------------------|


e)|12-12-12-10--------------|12-12-12-10-----------------------------|
B)|------------13-12-13-12--|------------13-12-13--12-10----10-12--13|
G)|-------------------------|---------------------------12-----------|
D)|-------------------------|----------------------------------------|
A)|-------------------------|----------------------------------------|
E)|-------------------------|----------------------------------------|

e)|--12-12-12-10--------------------------------------------------|
B)|--------------13-12-13--12-10----10-12-13-12-10-12-------------|
G)|------------------------------12-------------------------------|
D)|---------------------------------------------------------------|
A)|---------------------------------------------------------------|
E)|---------------------------------------------------------------|

e)|---------------------------------------------------------------|
B)|---------------------10----------------------------------------|
G)|--9-----9----9-11-12----12-11-12-------------------------------|
D)|----12---------------------------------------------------------|
A)|---------------------------------------------------------------|
E)|---------------------------------------------------------------|


e)|12-12-12-10------------|12-12-12-10-----------------------------|
B)|------------13-12-13-12|------------13-12-13--12-10----10-12--13|
G)|-----------------------|----------------------------12----------|
D)|-----------------------|----------------------------------------|
A)|-----------------------|----------------------------------------|
E)|-----------------------|----------------------------------------|

e)|--12-12-12-10--------------------------------------------------|
B)|--------------13-12-13--12-10----10-12-13-12-10-12-------------|
G)|------------------------------12-------------------------------|
D)|---------------------------------------------------------------|
A)|---------------------------------------------------------------|
E)|---------------------------------------------------------------|


e)|---------------------------------------------------------------|
B)|--------------------10-----------------------------------------|
G)|--9----9----9-11-12----12-11-12-11-9---------------------------|
D)|----12-------------------------------12------------------------|
A)|---------------------------------------------------------------|
E)|---------------------------------------------------------------|


e)|-----------------|-------------------|-----------------|-----------------|
B)|-----------------|-------------------|--10-------------|-----------12----|
G)|--9--------------|--9--11--12--11--12|---------12--12--|--------------12-|
D)|-----------------|-------------------|-----------------|-----------------|
A)|-----------------|-------------------|-----------------|-----------------|
E)|-----------------|-------------------|-----------------|-----------------|

e)|-----------------|-------------------|-------------------|---------------|
B)|-----------------|-------------------|-----12-12-12-10-12|12-12-12-10-12-|
G)|--9--------------|--9--11--12--11--12|--9----------------|---------------|
D)|-----------------|-------------------|-------------------|---------------|
A)|-----------------|-------------------|-------------------|---------------|
E)|-----------------|-------------------|-------------------|---------------|

e)|------------------------|------------------------|
B)|----12-12-12-10-12-12-12|----12-12-12-10-12-12-12|
G)|--9---------------------|--9---------------------|
D)|------------------------|------------------------|
A)|------------------------|------------------------|
E)|------------------------|------------------------|

e)|--------------------------|-----10---------------------|
B)|----12-12-12-10-12-12-12--|--13----13-12-10--12-12-12--|
G)|--9-----------------------|----------------------------|
D)|--------------------------|----------------------------|
A)|--------------------------|----------------------------|
E)|--------------------------|----------------------------|


e)|------------------------|------------------------|
B)|----12-12-12-10-12-12-12|----12-12-12-10-12-12-12|
G)|--9---------------------|--9---------------------|
D)|------------------------|------------------------|
A)|------------------------|------------------------|
E)|------------------------|------------------------|

e)|--------------------------|-----10-----------------------|
B)|----12-12-12-10-12-12-12--|--13----13-12-10--------------|
G)|--9-----------------------|-----------------12-11-12--(9)|
D)|--------------------------|------------------------------|
A)|--------------------------|------------------------------|
E)|--------------------------|------------------------------|



e)|-------------------|-------------------------------|
B)|--12h13p12----12---|---12h13p12----15-13-12----12--|
G)|-----------14------|------------14----------14-----| 
D)|-------------------|-------------------------------|
A)|-------------------|-------------------------------|
E)|-------------------|-------------------------------|

e)|-------------------|-------------------------------|
B)|--12h13p12----12---|---12h13p12----15-13-12----12--|
G)|-----------14------|------------14----------14-----| 
D)|-------------------|-------------------------------|
A)|-------------------|-------------------------------|
E)|-------------------|-------------------------------|

e)|-------------------|-------------------------------|
B)|--12h13p12----12---|---12h13p12----15-13-12----12--|
G)|-----------14------|------------14----------14-----| 
D)|-------------------|-------------------------------|
A)|-------------------|-------------------------------|
E)|-------------------|-------------------------------|

e)|-------------------|
B)|--12h13p12----12---|
G)|-----------14------| 
D)|-------------------|
A)|-------------------|
E)|-------------------|
comments
print report bad tab
I want to post or [tab]
guest
You may want to rate the tab now too:
select rating
Please do not post tabs as comments. Select "correction" instead!