Oops, an error
Loading. Please wait.

The Number Of The Beast Tab

ver1
ver1

Album

Solo

Whole song

More versions @911Tabs.com
150,500 views 87 this week
7 commentsread comments
1 2 3 4 5
accurate
x 23
Autoscroll
+/-
esc
set tempo
stop
Contributor
WARNING: You are trying to view
                                    content from Ultimate-Guitar.com
                                    in an unauthorized application,
                                    which is prohibited.

                                    Please use an official Ultimate
                                    Guitar Tabs application for iPhone,
                                    iPad or Android to access legitimate
                                    chords, guitar, bass, and drum tabs
                                    from Ultimate-Guitar.com database.

                                    Type "ultimate guitar tabs" in Apple
                                    App Store's or Android Market's
                                    search to find the application.
Band- Iron Maiden
Album- The Number Of The Beast

1.INVADERS

Intro-riff:
E----------------------|----------------------|
B----------------------|----------------------|
G----------------------|----------------------|
D--9-9-9-9-9----5---7--|--9-9-9-9-9----5---7--|
A--7-7-7-7-7----3---5--|--7-7-7-7-7----3---5--|
E----------------------|----------------------|

E----------------------|-------------------------------|
B----------------------|-------------------------------|
G----------------------|-------------------------------|
D--9-9-9-9-9----5---7--|--9-9-9-9---5-5-5-5---7-7-5-7--|
A--7-7-7-7-7----3---5--|--7-7-7-7---3-3-3-3---5-5-3-5--|
E----------------------|-------------------------------|

Riff 1:
E----------------------------------|
B----------------------------------|
G----------------------------------|
D------------7-5----5--5-----------|
A--0---0-5-7-----7--------0-5-3-0--|
E----------------------------------|

E----------------------------|
B----------------------------|
G----------------------------|
D------------7-5----5--5--7--|
A--0---0-5-7-----0--3--3--5--|
E----------------------------|

Verse:
E------------------|------------------|
B------------------|------------------|
G------------------|------------------|
D--9---------------|--9---------------|
A--7--7-7-7-7-7-7--|--7--7-7-7-7-7-7--|
E------------------|------------------|


E------------------|------------------|
B------------------|------------------|
G------------------|------------------|
D--5---------------|--7---------------|
A--3--3-3-3-3-3-3--|--5--5-5-5-5-5-5--|
E------------------|------------------|

Riff 2:
E-----------------|-----------------|
B-----------------|-----------------|
G-----------------|-----------------|
D-----------------|-----------------|
A--7---5---4------|--7---5---4------|
E------------5-3--|------------5-3--|

Riff 3:
E----------------------|-------------|
B----------------------|-------------|
G----------------------|-------------|
D----------------------|-------------|
A--9-------------------|--6--6--6-7--|
E--7--7-7-7-7-7-7-7-7--|--4--4--4-5--|

Chorus:
E--------------------|------------------------|
B--------------------|------------------------|
G-------------5-6-8--|--------8--6-5----------|
D--8-----6--8--------|--8------------8-6-5----|
A--6--6--------------|--6--6---------------8--|
E-----4--------------|-----4------------------|

Solo-riff:
E--------------------------------|
B--------------------------------|
G--------------------------------|
D--3-2-0-5-----------------------|
A--------3--3-3-3-3-3-3-3-3-3-3--|
E--------------------------------|

E-----------------------------------|
B-----------------------------------|
G-----------------------------------|
D--3-2-----3-2-----3-2-----3-2------|
A------5-3-----5-3-----5-3-----5-3--|
E-----------------------------------|

E--------------------------------|
B--------------------------------|
G--------------------------------|
D--------------------------------|
A--3-2-0-5-----------------------|
E--------3--3-3-3-3-3-3-3-3-3-3--|

E-----------------------------------|
B-----------------------------------|
G-----------------------------------|
D-----------------------------------|
A--3-2-----3-2-----3-2-----3-2------|
E------5-3-----5-3-----5-3-----5-3--|

E--------------------------------|
B--------------------------------|
G--------------------------------|
D--3-2-0-5-----------------------|
A--------3--3-3-3-3-3-3-3-3-3-3--|
E--------------------------------|

E--------------------------------|
B--------------------------------|
G--------------------------------|
D--------------------------------|
A--3-2-0-5-----------------------|
E--------3--3-3-3-3-3-3-3-3-3-3--|

E-----------------------------------|
B-----------------------------------|
G-----------------------------------|
D-----------------------------------|
A--3-2-----3-2-----3-2-----3-2------|
E------5-3-----5-3-----5-3-----5-3--|

End of solo-riff.

Outro:
E----------------------|----------------------|
B----------------------|----------------------|
G----------------------|----------------------|
D--9-9-9-9-9----5---7--|--9-9-9-9-9----5---7--|
A--7-7-7-7-7----3---5--|--7-7-7-7-7----3---5--|
E----------------------|----------------------|

E----------------------|-------------------------------|
B----------------------|-------------------------------|
G----------------------|-------------------------------|
D--9-9-9-9-9----5---7--|--9-9-9-9---5-5-5-5---9-9-7-9--|
A--7-7-7-7-7----3---5--|--7-7-7-7---3-3-3-3---7-7-5-7--|
E----------------------|-------------------------------|

2.CHILDREN OF THE DAMNED

 Em
 e-0----0--------------|--------------3---------------|
 B-0--------0----------|---------0--------0-----------|
 G-0------------0------|-----0----------------0-------|
 D-2----------------2--|--------------------------0---|
 A-2-------------------|------------------------------|
 E-0-------------------|--3---------------------------|

    D                        C            D
 e---------2--------------|-----0-------------2---------|
 B-------------3-------3--|--1-----1------3------3------|
 G--2--------------2------|--0--------0---2---------2---|
 D--0---------------------|--2------------0-------------|
 A------------------------|--3--------------------------|
 E------------------------|-----------------------------|

  Intro Solo:I've broken this into two main sections. Each one
             lasts two bars. Swell into the first note of each
             section with the volume control. The key here is
             a smooth mellow sound. I haven't shown the vibrato's
             because there is a basic 16th note shallow vibrato
             through the whole solo, just listen to the record.
             Try and pick as few of the notes as possible. Use
             smooth slides and hammers/pulls to move between the
             notes. Live, I think Dave uses a 4-stage phaser
             (MXR Phase 90) with a fairly fast rate (about a
             quarter note). There is a slight variation which he
             plays on the 12 Wasted Years Video which I've shown.
             At the end the F# note is sustained instead of
             resolving to the E.

  |----------------------------------------------|
  |----------------------------------------------|
  |----------------------------------------------|
  |-----------------7--/9--7-----7b(9)r-p5-7-p5--|
  |--7-----7--9-10------------5------------------|
  |----------------------------------------------|


  |-----------------------------------------------------------------------|
  |-----------------------------------------------------------------------|
  |----------------------------------------------11--12--11h12p11---------|
  |--------7-/9--7--5--4h5p4-------------12--14-------------------14-12-14|
  |--7------------------------5--12-/14-----------------------------------|
  |-----------------------------------------------------------------------|

  Variation:

  |-----------------------------------------------------------------------|
  |-----------------------------------------------------------------------|
  |----------------------------------------------11--12-p11~sustain-------|
  |--------7-/9--7--5--4h5p4-------------12--14---------------------------|
  |--7------------------------5--12-/14-----------------------------------|
  |-----------------------------------------------------------------------|

Acoustic Riff for Verses:
     Em                            Cmaj7          D6add4
  e-----------------0-----------|------------------------------|
 B--------------------0--------|-----------0-------------0-----|
 G-----------0-----------0-----|--------0--------------0-------|
 D--------2--------------------|-----2--------------4----------|
 A-----2-------------------0h2-|--3--------------5-------------|
 E--0--------------------------|-------------------------------|

Live, in the second verse, after the line "If he had lived he would
have crucified us all" Adrian plays natural harmonics at the 5th fret
as follows.

|--5----------------------|
|-----5-------------------| Natural Harmonics
|--------5----------------|
|-----------5-------------|
|-------------------------|
|-------------------------|

Chorus: I've just shown the basic fingerings for the chorus. You
        can pick up the strumming and muting from the record.
        Note that on alternate repititions of the riff the last
        two chords are muted and strummed differently.

   E(m)      B(m)      C   D   A    G
|----------------------------------------|
|----------------------------------------|
|-------9-9--4-4-------5---7-------------|
|--2----9-9--4-4-------5---7---7-7--5-5--|
|--2----7-7--2-2--0-2--3---5---7-7--5-5--|
|--0---------------------------5-5--3-3--|

After the second chorus the song breaks out of the chorus with
this phrase.

   A  G  F# D  E
|-----------------|
|-----------------|
|--9--7--6--------|
|--7--5--4--7--9--|
|--7--5--4--5--7--|
|-----------------|

The rhythm guitar here is just made up of sustained power chords
like this. Live, the sound here shimmers due to Dave's phaser.
The strumming isn't quite this plain, there are a few muted
strums usually before each chord change.

   E(m)            D         C          D
|----------------------------------------------------------|
|----------------------------------------------------------|
|----------------------------------------------------------|
|--9-------2 BARS--7--2 BARS-5---1 BAR--7---1 BAR----------|
|--7---------------5---------3----------5------------------|
|----------------------------------------------------------|


The next part is the lead which Adrian plays over the vocals
The note in brackets means that sometimes the phrase finishes
with F# and sometimes D.

|-----------------------|----------------------|--------------------|
|-----------------------|----------------------|--------------------|
|-----------------------|----------------------|--------------------|
|--------4--5--4--------|--------4-5-4---------|-/9-9-10-7-9-7-5-4--|
|--7--------------7--5--|--7------------7---5--|----------------(5)-|
|-----------------------|----------------------|--------------------|

The next part is the guitar harmony before the solo.
The bends at the end of these phrases may or may not be unison bends.
Try them yourself and see what you think.

Gtr I (Adrian)
|---------------------------------------------------------------------|
|---------------------------------------------------------------------|
|--9---11-12-11--9--7--4~--5-/7--5--4--7--5--9--11b(12)-9b(11)-7b(9)--|
|---------------------------------------------------------------------|
|---------------------------------------------------------------------|
|---------------------------------------------------------------------|

Gtr II (Dave)
|---------------------------------------------------------------|
|--8--10-/12-10-8-12-7----------------8-10b(12)-8b(10)----------|
|----------------------9-/11-9-7-11-9------------------11b(12)--|
|---------------------------------------------------------------|
|---------------------------------------------------------------|
|---------------------------------------------------------------|


The guitar solo is tapped with the side of the plectrum.
The highest note of each triplet phrase is tapped and the other
two notes are fingered with the first and third finger of your
left hand.
The tab as shown is played through twice except the bend in the
last bit is bent slightly sharper than the A note the second time.

  T  P  H   T  P  H     sim.      sim.
|--20-12-15--19-12-15--20-12-15--19-12-15--|
|------------------------------------------|
|------------------------------------------|
|------------------------------------------|
|------------------------------------------|
|------------------------------------------|


|--20-12-15--19-12-15--20-12-15--19-12-15--|
|------------------------------------------|
|------------------------------------------|
|------------------------------------------|
|------------------------------------------|
|------------------------------------------|


|--15-10-12--14-10-12--15-10-12--14-10-12--|
|------------------------------------------|
|------------------------------------------|
|------------------------------------------|
|------------------------------------------|
|------------------------------------------|


|--15-10-12--14-10-12--15-10-12--14-10-12--|
|------------------------------------------|
|------------------------------------------|
|------------------------------------------|
|------------------------------------------|
|------------------------------------------|


|--15--8-10--14--8-10--15--8-10--14--8-10--|
|------------------------------------------|
|------------------------------------------|
|------------------------------------------|
|------------------------------------------|
|------------------------------------------|


|--15-10-12--14-10-12--15-10-12--14-10-12--|
|------------------------------------------|
|------------------------------------------|
|------------------------------------------|
|------------------------------------------|
|------------------------------------------|


|--20-12-15--19-12-15--20-12-15--19-12-15--|
|------------------------------------------|
|------------------------------------------|
|------------------------------------------|
|------------------------------------------|
|------------------------------------------|


|--15b(17)r15-p12--------------------------|
|-----------------15~----------------------|
|------------------------------------------|
|------------------------------------------|
|------------------------------------------|
|------------------------------------------|


The next bit is right after the solo where Bruce sings
Oh! Oh! Oh! Oh! etc.

|-------------------|-----------------|--------------------|
|-------------------|-----------------|--------------------|
|-------------------|-----------------|--------------------|
|-------4-5-4-------|------4-5-4------|-----4-5-4----4-----|
|--7-----------7-5--|--7---------7-5--|--7---------7----5~-|
|-------------------|-----------------|--------------------|


The next part goes with the remaining vocals, "You're Children
of the ***ed" etc.
It should be noted that the strumming for the rhythm guitar
changes here to a more intense pattern.(Same chords as before).

|-------------------|--------------------|
|-------------------|--------------------|
|-------------------|--------------------|
|--5-(7)/9-7-5-4-5--|--5--(7)/9-7-5-4-5--|
|-------------------|--------------------|
|-------------------|--------------------|

|-------------------|--------------------|
|-------------------|--------------------|
|-------------------|--------------------|
|--5-(7)/9-7-5-5-4--|--7--(7)/9-7-4-h5---|
|-------------------|------------------5-|
|-------------------|--------------------|


Ending:

Gtr I (Adrian)
|----------------------------------------------------------|
|----------------------------------------------------------|
|----------------------------------------------------------|
|--5----4----2----0----4~--------2~---------------2--------|
|---------------------------2~--------------------2--------|
|-------------------------------------------------0--------|


Gtr II (Dave)
|----------------------------------------------------------|
|----------------------------------------------------------|
|--9----7--------------9--------------------------9--------|
|--9----7----5----7----9--------------------------9--------|
|--7----5----5----7----7--------------------------7--------|
|------------3----5----0-----------------------------------|

3.THE PRISONER

INTRO:

   B       A  B         B        A  B  D
|-----------------------------------------|
|-----------------------------------------|
|--------------------------------------7--|
|--9--9--9\7--9---------9--9---9\7--9--7--|
|--9--9--9\7--9---------9--9---9\7--9--5--|
|--7--7--7\5--7---------7--7---7\5--7-----|

                                1st time  2nd time
   A       G  A     F#       E   A  E     G  A
|------------------------------|-------|---------|
|------------------------------|-------|---------|
|------------------------------|-------|---------|
|--7--7--7\5--7------4--4--4\2-|-7--2--|--5--7---|
|--7--7--7\5--7------4--4--4\2-|-7--2--|--5--7---|
|--5--5--5\3--5------2--2--2-0-|-5--0--|--3--5---|

MAIN RIFF:
Listen for the strumming and muting of the B power chord.
   B               A    (E)      B       D C# A
|-----------------------------|------------------|
|-----------------------------|------------------|
|-----------------------------|------------------|
|--4-STRUM---------2-2--------|--4-------7-6--2--|
|--2---------------0-0--------|--2-------5-4--0--|
|-----------------------3-2-0-|------------------|

   B           A    (E)        Asus4      E
|---------------------------|-------------0--|
|---------------------------|--3----------0--|
|---------------------------|--2----------1--|
|--4-----------2-2----------|--2----------2--|
|--2-----------0-0----------|--0----------2--|
|--------------------3-2-0--|-------------0--|

For the next two parts I'll just show the basic idea:
Listen for the muting.
RUN, FIGHT, Etc.:

Gtr II: (Adrian)
   Am7            Asus4
|----------------------------------------|
|----------------------------------------|
|--5--------5-----7--------7-----5-------|
|--5--------5-----7--------7-----5-------|
|--0--0--0--0--0--0--0--0--0--0--0-etc---|
|----------------------------------------|

Gtr I: (Dave)
   Am7                     Asus13
|-----------------------------------------------------------------|
|--1-----------------------3-----------------------1--------------|
|--0-----------------------0-----------------------0--------------|
|--2-----------------------4-----------------------2--------------|
|--0--0--0--0--0--0--0--0--0--0--0--0--0--0--0--0--0--0-etc-------|
|-----------------------------------------------------------------|

NOW YOU SEE ME...:
   Dsus4/A     Csus4/G         Bsus4/F#
|---------------------------------------------|
|--8----8------6------5-s/-6---5---6----------|
|--7----7------5------4-s/-5---4---5----repeat|
|--7----7------5------4-s/-5---4---5----------|
|---------------------------------------------|
|---------------------------------------------|

BREAK THE WALLS...
   Bsus4     B        B   E   B
|--------------------------------------|
|--5---------4-------------------------|
|--4---------4--------4---1---4--------|
|--4---------4--------4---2---4--------|
|--2---------2--------2---2---2--------|
|-------------------------0------------|

If the above Bsus4 chord is to hard to play as written play it
like this:

|-0-|
|-0-|
|-4-|
|-4-|
|-2-|
|---|

CHORUS:
Let chords ring as much as possible.
   E              Bsus4             Aadd9            C#  B
|--0-------0----------------0-----------------0-------------------|
|--0---------0----0------------0----0------------0----------------|
|--9----9---------4------4----------2------2---------6---4--------|
|--9--9-----------4---4-------------2---2------------6---4--------|
|--7--------------2-----------------0----------------4---2--------|
|--0--------------------------------------------------------------|

   E              Bsus4             Aadd9            C#  D
|--0-------0----------------0-----------------0-------------------|
|--0---------0----0-----------0-----0------------0----------------|
|--9----9---------4------4----------2------2---------6---7--------|
|--9--9-----------4---4-------------2---2------------6---7--------|
|--7--------------2-----------------0----------------4---5--------|
|--0--------------------------------------------------------------|

BASSLINE FOR CHORUS:
|-----------9--------------9-----------------9--------------------|
|--------9-----9--------9-----9-----------9-----9-----------------|
|-----7--------------7-----------------7-------------4--(2 or 5)--|
|--0--------------0-----------------0-----------------------------|


BREAK AFTER 2nd CHORUS:
Played over intro riff, then over the following chord sequence
which I have called the Rhythm for Solo's.
Note that while the repeating pattern is playing only use an
F# power chord, do not play it as a major or minor chord.
The repeating pattern can be varied during the Bm section
by alternatively hammering on to the 12th fret instead of the
11th. I've written it bar by bar to show the syncopation.

   Bm
|----------------------------|---------------------------|
|----------------------------|---------------------------|
|-----7-h11-----7-h11-----7--|-h11---7-h11-----7-h11-----|
|--9---------9---------9-----|-----9--------9---------9--|
|----------------------------|---------------------------|
|----------------------------|---------------------------|


|-----------------------------|----------------------------|
|-----------------------------|----------------------------|
|--7-h11-----7-h11-----7-h11--|-----7-h11-----7-h11-----7--|
|---------9---------9---------|--9---------9---------9-----|
|-----------------------------|----------------------------|
|-----------------------------|----------------------------|

   A
|----------------------------|-------------------------------|
|----------------------------|-------------------------------|
|-----6-h-9-----6-h-9-----6--|--h-9-----6-h-9-----6-h-9-p-6--|
|--7---------7---------7-----|-------7---------7-------------|
|----------------------------|-------------------------------|
|----------------------------|-------------------------------|

   F#                           G            A
|----------------------------|----------------------------|
|----------------------------|----------------------------|
|-----3-h-6-----3-h-6-----3--|-----4-h-7--------6-h-9-----|
|--4---------4---------4-----|--5---------5--7---------7--|
|----------------------------|----------------------------|
|----------------------------|---------------^------------|
                                             2nd time solo starts

RHYTHM FOR SOLO'S:
   B        D C#      A    F#   A     E    G  A
|-----------------------------------------------------------------|
|-----------------------------------------------------------------|
|-----------------------------------------------------------------|
|--4--------7--6------2----------1st time--2nd time---------------|
|--2--------5--4------0-----4--|-7----2-|--5--7--|----------------|
|---------------------------2--|-5----0-|--3--5--|----------------|

ENDING:
Play through chorus and end with
                     C# B  E
|--------------------------0--------------------------------------|
|--------------------------0--------------------------------------|
|--------------------6--4--9--------------------------------------|
|--------------------6--4--9--------------------------------------|
|--------------------4--2--7--------------------------------------|
|--------------------------0--------------------------------------|
   I know where I'm going

Gtr Solo 1: (Adrian)
With Chorus

|---------------------------------------------|
|---------------------------------------------|
|-----------------------9b(11)r9p7------------|
|-------7h9--9~~--------------------9~~-------|
|--7h9----------------------------------------|
|---------------------------------------------|


|---------------7--7--7--7--7--7--------------|
|--7------------7--7--7--7--7--7--10~~--------|
|-----9b(11)----------------------------------|
|-----(HOLD BEND               )--------------|
|---------------------------------------------|
|---------------------------------------------|


|--7-----------------7------------------------|
|-----10p7--10b(12)-----10p7--10b(12)---------|
|---------------------------------------------|
|---------------------------------------------|
|---------------------------------------------|
|---------------------------------------------|


|--7--7--7--10--10p7------7---------------------------------------|
|---------------------10-----10p7-----7---------------------------|
|----------------------------------9-----9p7--9p7----9b(11)r9p7---|
|--------------------------------------------------9------------9~|
|-----------------------------------------------------------------|
|-----------------------------------------------------------------|


|-----------------------------------------------------------------|
|--0-h-12-h-15----0-h-12-h-15------0-h-12-h-15----0-h-11-h-14-----|
|-----------------------------------------------------------------|
|-----------------------------------------------------------------|
|-----------------------------------------------------------------|
|-----------------------------------------------------------------|


|-----------------------------------------------------------------|
|--0-h-12-h-15----0-h-11-h-14----0-h-12-h-15----0-h-11-h-14-------|
|-----------------------------------------------------------------|
|-----------------------------------------------------------------|
|-----------------------------------------------------------------|
|-----------------------------------------------------------------|


|---------------------------------------------|
|--15--15b(17)--(17)r15--15~~-----------------|
|---------------------------------------------|
|---------------------------------------------|
|---------------------------------------------|
|---------------------------------------------|


|-----------------------------------------------------------------|
|--s/-15--15--15p14--14--14--14p12--12--12--12s\10--10--10s\8-----|
|-----------------------------------------------------------------|
|-----------------------------------------------------------------|
|-----------------------------------------------------------------|
|-----------------------------------------------------------------|


|-----------------------------------------------------------------|
|--7----------7---------------------------------------------------|
|-----9b(11)-----10p9p7-----7-------------------------------------|
|------------------------9-----9--7-------------------------------|
|------------------------------------7--9--8p7--5-----------------|
|-----------------------------------------------------------------|

Gtr Solo 2: (Dave)
With Chorus and "Tape Echo" Delay

|-----------------------------------------------------------------|
|--14h15p14----15p14p12------12--15p14p12------12--15p14p12-------|
|------------------------16----------------16----------------16---|
|-----------------------------------------------------------------|
|-----------------------------------------------------------------|
|-----------------------------------------------------------------|


|-----------------------------------------------------------------|
|--12--15p14p12------12--15p14p12------12--15p14p12--12--17b(19)~~|
|----------------16----------------16-----------------------------|
|-----------------------------------------------------------------|
|-----------------------------------------------------------------|
|-----------------------------------------------------------------|


|--14h15p14--14h15p14--14--14h15p14--14--14h15p14--14--14h15p14---|
|-----------------------------------------------------------------|
|-----------------------------------------------------------------|
|-----------------------------------------------------------------|
|-----------------------------------------------------------------|
|-----------------------------------------------------------------|


|--14--14h15p14--14--14h15p14--14--14h15p14--14--14h15p14--14-----|
|-----------------------------------------------------------------|
|-----------------------------------------------------------------|
|-----------------------------------------------------------------|
|-----------------------------------------------------------------|
|-----------------------------------------------------------------|


|--17b(19)~~~----17b(19)~~~-------------------|
|---------------------------------------------|
|---------------------------------------------|
|---------------------------------------------|
|---------------------------------------------|
|---------------------------------------------|


|-----------7-----------7-----------7--------------7--------------|
|--10b(12)-----10b(12)-----10b(12)-----7--10b(12)-----10b(12)-----|
|-----------------------------------------------------------------|
|-----------------------------------------------------------------|
|-----------------------------------------------------------------|
|-----------------------------------------------------------------|


|--7--------------------------------------------------------------|
|-----7h10p7--7---------------------------------------------------|
|----------------9p7h9p7--7p6h7p6---------------------------------|
|----------------------------------9p7h9p7------------------------|
|-------------------------------------------9p7h9p7--5-s\---------|
|-----------------------------------------------------------------|


|-----------------------------------------------------------------|
|--14--15--17--15--14h15p14--14--17--15--14h15p14--14--17p15------|
|-----------------------------------------------------------------|
|-----------------------------------------------------------------|
|-----------------------------------------------------------------|
|-----------------------------------------------------------------|


|-------------------------------------------14h15p14--14--15------|
|--14h15p14--17p15p14----14--15--14h15--14------------------------|
|-----------------------------------------------------------------|
|-----------------------------------------------------------------|
|-----------------------------------------------------------------|
|-----------------------------------------------------------------|


|--14h15p14--15--17b(19)--(19)--(19)------------------------------|
|-----------------------------------------------------------------|
|-----------------------------------------------------------------|
|-----------------------------------------------------------------|
|-----------------------------------------------------------------|
|-----------------------------------------------------------------|

4.22 ACACIA AVENUE

Intro
E--------------------------------------|
B--------------------------------------|
G--------------------------------------|
D---9----------------------------------|
A---7-7-7-7-7-7-7-7-7-7-7-7------------|
E--------------------------------------|
     PM.....................
E----------------------------------|
B----------------------------------|
G----------------------------------|
D-7--9-----------------------------|
A-5--7-----------------------------|
E----------------------------------|

E--------------------------------------|
B--------------------------------------|
G--------------------------------------|
D---9----------------------------------|
A---7-7-7-7-7-7-7-7-7-7-7-7------------|
E--------------------------------------|
     PM.....................
E----------------------------------------|
B----------------------------------------|
G----------------------------------------|
D--7-------------------------------------|
A--5-5-5-5-5-5-5-------------------------|
E----------------------------------------|
    PM..........
E---------------------------------------|
B---------------------------------------|
G---------------------------------------|
D--7-7---9-9-9--------------------------|
A--5-5---7-7-7--------------------------|
E---------------------------------------|

E--------------------------------------|
B--------------------------------------|
G--------------------------------------|
D---9----------------------------------|
A---7-7-7-7-7-7-7-7-7-7-7-7------------|
E--------------------------------------|
     PM.....................

E----------------------------------------|
B----------------------------------------|
G----------------------------------------|
D--7-------------------------------------|
A--5-5-5-5-5-5-5-------------------------|
E----------------------------------------|
    PM..........
E---------------------------------------|
B---------------------------------------|
G---------------------------------------|
D--7-7---5-5-5--------------------------|
A--5-5---3-3-3--------------------------|
E---------------------------------------|

E----------------------------------|
B----------------------------------|
G----------------------------------|
D---5------------------------------|
A---3-3-3-3-3-3-3-3----------------|
E----------------------------------|
    PM.............
E--------------------------------------|
B--------------------------------------|
G--------------------------------------|
D---9----------------------------------|
A---7-7-7-7-7-7-7-7-7-7-7-7------------|
E--------------------------------------|
     PM.....................
Verse
E----------------------|
B----------------------|
G----------------------|
D--9-s-8-s-7-s-5-------|
A--7-s-6-s-5-s-3-------|
E----------------------|

E----------------------------------------------|
B----------------------------------------------|
G----------------------------------------------|
D----5-5-5-5--5---7-7-7-7--7------9-9-9-9-9----|
A----3-3-3-3--3---5-5-5-5--5------7-7-7-7-7----|
E----------------------------------------------|

E----------------------|
B----------------------|
G----------------------|
D--9-s-8-s-7-s-5-------|
A--7-s-6-s-5-s-3-------|
E----------------------|

E----------------------------------------------|
B----------------------------------------------|
G----------------------------------------------|
D----5-5-5-5--5---7-7-7-7--7------9-9-9-9-9----|
A----3-3-3-3--3---5-5-5-5--5------7-7-7-7-7----|
E----------------------------------------------|

E---------------------------|
B---------------------------|
G---------------------------|
D--7--9------9-9-9-9--------|
A--5--7------7-7-7-7--------|
E---------------------------|

E---------------------------|
B---------------------------|
G---------------------------|
D--7--9------9-9-9----------|
A--5--7------7-7-7----------|
E---------------------------|

E----------------------|
B----------------------|
G----------------------|
D--9-s-8-s-7-s-5-------|
A--7-s-6-s-5-s-3-------|
E----------------------|

E----------------------------------------------|
B----------------------------------------------|
G----------------------------------------------|
D----5-5-5-5--5---7-7-7-7--7------9-9-9-9-9----|
A----3-3-3-3--3---5-5-5-5--5------7-7-7-7-7----|
E----------------------------------------------|

E----------------------|
B----------------------|
G----------------------|
D--9-s-8-s-7-s-5-------|
A--7-s-6-s-5-s-3-------|
E----------------------|

E----------------------------------------------|
B----------------------------------------------|
G----------------------------------------------|
D----5-5-5-5--5---7-7-7-7--7------9-9-9-9-9----|
A----3-3-3-3--3---5-5-5-5--5------7-7-7-7-7----|
E----------------------------------------------|

E---------------------------|
B---------------------------|
G---------------------------|
D--7--9------9-9-9-9--------|
A--5--7------7-7-7-7--------|
E---------------------------|

E---------------------------|
B---------------------------|
G---------------------------|
D--7--9------9-9-9----------|
A--5--7------7-7-7----------|
E---------------------------|
Interlude
E------------------------------------------------------|
B------------------------------------------------------|
G------------------------------------------------------|
D-------------------5----------------7-7-7---p5--------|
A--------5--7-----------------5--7---------------7--5--|
E-0-0-0--------0-0-0---0-0-0---------------------------|

E--------------------------------------|
B--------------------------------------|
G--------------------------------------|
D-------------5-5-5-4-4-4-5------------|
A---3--3-3-----------------------------|
E--------------------------------------|

E-------------------------------------------|
B-------------------------------------------|
G-------------------------------------------|
D-------------5-5-5-4-4-4-5------5--4-------|
A---3--3-3----------------------------3-----|
E-------------------------------------------|
Chorus
E-----------------------------------------|
B-----------------------------------------|
G-----------------------------------------|
D--5----7----4----5------5---7------------|
A--3----5----2----3------3---5------------|
E-----------------------------------------|

E------------------------------------------|
B------------------------------------------|
G------------------------------------------|
D---7---9---9-9-9-9-9-9--------------------|
A---5---7---7-7-7-7-7-7--------------------|
E------------------------------------------|
Pre solo
E----------------------------|
B----------------------------|
G----------------------------|
D--7--9------9-9-9-9---------|
A--5--7------7-7-7-7---------|
E----------------------------|

E----------------------------|
B----------------------------|
G----------------------------|
D--7--9------9-9-9-9---------|
A--5--7------7-7-7-7---------|
E----------------------------|

E----------------------------|
B----------------------------|
G----------------------------|
D--7--9------9-9-9-9---------|
A--5--7------7-7-7-7---------|
E----------------------------|

E---------------------------------------|
B---------------------------------------|
G--9-9-9--7-7-7--------9-9-9---7-7-7----|
D--7-7-7--5-5-5--------7-7-7---5-5-5----|
A---------------------------------------|
E---------------------------------------|

E----------------------------|
B----------------------------|
G----------------------------|
D--7--9------9-9-9-9---------|
A--5--7------7-7-7-7---------|
E----------------------------|

E----------------------------|
B----------------------------|
G----------------------------|
D--7--9------9-9-9-9---------|
A--5--7------7-7-7-7---------|
E----------------------------|

E----------------------------|
B----------------------------|
G----------------------------|
D--7--9------9-9-9-9---------|
A--5--7------7-7-7-7---------|
E----------------------------|

E---------------------------------------|
B---------------------------------------|
G--9-9-9--7-7-7--------9-9-9---7-7-7----|
D--7-7-7--5-5-5--------7-7-7---5-5-5----|
A---------------------------------------|
E---------------------------------------|

5.THE NUMBER OF THE BEAST

RiffA
---------------------------------------|
---------------------------------------|
---------------------------------------|
--------4-5-7-x-x-7-x-x-7-x-x-7-x-x-7--| x3
--5-5-5-----5-5-5-5-5-5-5-5-5-5-5-5-5--|
---------------------------------------|

---------------------------------------|
---------------------------------------|
---------------------------------------|
--------2-3-5-x-x-5-x-x-5-x-x-5-x-x-5--|
--3-3-3-----3-3-3-3-3-3-3-3-3-3-3-3-3--|
---------------------------------------|

repeat as nessescary

Bit Before Verse
-----------------------------------------------------|
-----------------------------------------------------|
-----------------------------------------------------|
--7-7-7-7--7---7-7-7-7--7---5-5-5-5--5---7-7-7-7--7--|
--5-5-5-5--5---5-5-5-5--5---3-3-3-3--3---5-5-5-5--5--|
-----------------------------------------------------|

Verse
----------------------------|
----------------------------|
----------------------------|
--7-x-7-x-7--7-7-7-7-7-7-7--| x3
--5-x-5-x-5--5-5-5-5-5-5-5--|
----------------------------|

-------------------|
-------------------|
-------------------|
--5-5-5-5-7-7-7-7--|
--3-3-3-3-5-5-5-5--|
-------------------|

Repeat as nessescary

Chorus
-----------------------------|
-----------------------------|
--5-------5---7---5-------5--|
--5---5---5---7---5---5---5--|
--3---5---3---5---3---5---3--|
------3---------------3------|

Verse
----------------------------|
----------------------------|
----------------------------|
--7-x-7-x-7--7-7-7-7-7-7-7--| x3
--5-x-5-x-5--5-5-5-5-5-5-5--|
----------------------------|

-------------------|
-------------------|
-------------------|
--5-5-5-5-7-7-7-7--|
--3-3-3-3-5-5-5-5--|
-------------------|

Repeat as nessescary

Chorus
-----------------------------|
-----------------------------|
--5-------5---7---5-------5--|
--5---5---5---7---5---5---5--|
--3---5---3---5---3---5---3--|
------3---------------3------|

Riff B
----------------------------------------------------|
----------------------------------------------------|
------------------------------5----5-5-5-7-5-5-7-5--|
--5-5-5-7-5--7-7-7-9-7--9-9-9---9-------------------| x4
----------------------------------------------------|
----------------------------------------------------|

Dave's Solo
this isn't really how you play Daves solo, its my own improvised version
that my friend's say sounds a lot like it, decide for yourself.
---------------------------------|
-----------------------12-14-15--|
-----------12----12-14-----------|
--12-14-15----15-----------------|
---------------------------------|
---------------------------------|

---------------------------------------|
--15-14-12-15-12----12-----------------|
-----------------15----15-14-12-14-----|
-----------------------------------14--|
---------------------------------------|
---------------------------------------|

----------------------------------------------------------------------------|
--12----15-12----15-12----15-12----15--15----18-15----18-15----18-15----18--|
-----14-------14-------14-------14--------17-------17-------17-------17-----|
----------------------------------------------------------------------------|
----------------------------------------------------------------------------|
----------------------------------------------------------------------------|

------------------------------------------------------------|
--18-17-15----15--------------------------------------------|
-----------18----18-17-15-12-15-14-12-14-12-----------------|
--------------------------------------------14-12-14-12-----|
--------------------------------------------------------14--|
------------------------------------------------------------|

-----------------------15-17---18--|
-----------12----12-14-------------|
--12-14-15----15-------------------|
-----------------------------------|
-----------------------------------|
-----------------------------------|

Breakdown
--------------------------------------------|
--------------------------------------------|
--------------------------------------------|
-----12----10---------10--------------------|
--12----12----12-10-8----12-10-8-8----------|
-----------------------------------12-10-8--|

---------------------------------|
---------------------------------|
---------------------------------|
----8---6-------6----------------|
--8---8---8-6-4---8-6-4-4--------|
--------------------------8-6-4--|

sorry don't know Adrians solo or the bit after

Verse
----------------------------|
----------------------------|
----------------------------|
--7-x-7-x-7--7-7-7-7-7-7-7--| x3
--5-x-5-x-5--5-5-5-5-5-5-5--|
----------------------------|

-------------------|
-------------------|
-------------------|
--5-5-5-5-7-7-7-7--|
--3-3-3-3-5-5-5-5--|
-------------------|

Repeat as nessescary

Chorus
-----------------------------|
-----------------------------|
--5-------5---7---5-------5--|
--5---5---5---7---5---5---5--|
--3---5---3---5---3---5---3--|
------3---------------3------|

Riff A
---------------------------------------|
---------------------------------------|
---------------------------------------|
--------4-5-7-x-x-7-x-x-7-x-x-7-x-x-7--| x3
--5-5-5-----5-5-5-5-5-5-5-5-5-5-5-5-5--|
---------------------------------------|

---------------------------------------|
---------------------------------------|
---------------------------------------|
--------2-3-5-x-x-5-x-x-5-x-x-5-x-x-5--|
--3-3-3-----3-3-3-3-3-3-3-3-3-3-3-3-3--|
---------------------------------------|

repeat as nessescary

Outro
---------------------------------------------------------|
---------------------------------------------------------|
---------------------------------------------------------|
--7-7-7-7--7---7-7-7-7--7---5-5-5-5--5---7-7-7-7--7-5-7--|
--5-5-5-5--5---5-5-5-5--5---3-3-3-3--3---5-5-5-5--5-3-5--|
---------------------------------------------------------|

6.RUN TO THE HILLS

Intro riff:

   B5                         A5       E5
E--12-12---------------12----------------------------------------|
B--------15------15-15-------13-13h15----------------------------|
G--------------------------------------12-12h14------------------|
D----------------------------------------------------------------|
A----------------------------------------------------------------|
E----------------------------------------------------------------|

play this five times

AND at the end play the last note like this:

  E5
E----------------------------------------------------------------|
B----------------------------------------------------------------|
G--12h15/17b(19)-------------------------------------------------|
D----------------------------------------------------------------|
A----------------------------------------------------------------|
E----------------------------------------------------------------|

Verse riff

  G5
E----------------------------------------------------------------|
B----------------------------------------------------------------|
G----------------------------------------------------------------|
D--5-x-x--5-x-x--5-x-x--5-x-x--5-x-x--5-x-x--5-x-x--5-x-x--------|
A--5-x-x--5-x-x--5-x-x--5-x-x--5-x-x--5-x-x--5-x-x--5-x-x--------|
E--3-3-3--3-3-3--3-3-3--3-3-3--3-3-3--3-3-3--3-3-3--3-3-3--------|
  G5
E----------------------------------------------------------------|
B----------------------------------------------------------------|
G----------------------------------------------------------------|
D--5-x-x--5-x-x--5-x-x--5-x-x--5-x-x--5-x-x--5-x-x--5-x-x--------|
A--5-x-x--5-x-x--5-x-x--5-x-x--5-x-x--5-x-x--5-x-x--5-x-x--------|
E--3-3-3--3-3-3--3-3-3--3-3-3--3-3-3--3-3-3--3-3-3--3-3-3--------|

Running from dustclouds....

   F5
E-----------------------------|
B-----------------------------|
G-----------------------------|
D--3-x-x--3-x-x--3-x-x--3-x-x-|
A--3-x-x--3-x-x--3-x-x--3-x-x-|
E--1-1-1--1-1-1--1-1-1--1-1-1-|

Galloping hard on the plains....

   F5
E----------------------------------------------------------------|
B----------------------------------------------------------------|
G----------------------------------------------------------------|
D-3-3----2-2--3-3--2-2-------------------------------------------|
A-3-3----2-2--3-3--2-2-------------------------------------------|
E-1-1----0-0--1-1--0-0-------------------------------------------|

   G5
E----------------------------------------------------------------|
B----------------------------------------------------------------|
G----------------------------------------------------------------|
D--5-x-x--5-x-x--5-x-x--5-x-x--5-x-x--5-x-x--5-x-x--5-x-x--------|
A--5-x-x--5-x-x--5-x-x--5-x-x--5-x-x--5-x-x--5-x-x--5-x-x--------|
E--3-3-3--3-3-3--3-3-3--3-3-3--3-3-3--3-3-3--3-3-3--3-3-3--------|

Chasing the redskins....

   F5
E-----------------------------|
B-----------------------------|
G-----------------------------|
D--3-x-x--3-x-x--3-x-x--3-x-x-|
A--3-x-x--3-x-x--3-x-x--3-x-x-|
E--1-1-1--1-1-1--1-1-1--1-1-1-|

   F5    E5   F5  E5
E----------------------------------------------------------------|
B----------------------------------------------------------------|
G----------------------------------------------------------------|
D-3-3----2-2--3-3--2-2-------------------------------------------|
A-3-3----2-2--3-3--2-2-------------------------------------------|
E-1-1----0-0--1-1--0-0-------------------------------------------|

  F5                 G5          F5   G5   A5
E----------------------------------------------------------------|
B----------------------------------------------------------------|
G----------------------------------------------------------------|
D-3------------------5------------3----5---7-7-7-7---------------|
A-3------------------5------------3----5---7-7-7-7---------------|
E-1------------------3------------1----3---5-5-5-5---------------|

Murder for freedom....

Chorus:

  A5
E----------------------------------------------------------------|
B----------------------------------------------------------------|
G----------------------------------------------------------------|
D--7-x-x--7-x-x--7-x-x--7-x-x--7-x-x--7-x-x--7-x-x--7-x-x--------|
A--7-x-x--7-x-x--7-x-x--7-x-x--7-x-x--7-x-x--7-x-x--7-x-x--------|
E--5-5-5--5-5-5--5-5-5--5-5-5--5-5-5--5-5-5--5-5-5--5-5-5--------|

Run to the hills...

   G5
E----------------------------------------------------------------|
B----------------------------------------------------------------|
G----------------------------------------------------------------|
D--5-x-x--5-x-x--5-x-x--5-x-x--5-x-x--5-x-x--5-x-x--5-x-x--------|
A--5-x-x--5-x-x--5-x-x--5-x-x--5-x-x--5-x-x--5-x-x--5-x-x--------|
E--3-3-3--3-3-3--3-3-3--3-3-3--3-3-3--3-3-3--3-3-3--3-3-3--------|

   G5    F5 G5
E--------------|
B--------------|
G--------------|
D--5---5--3--5-|
A--5---5--3--5-|
E--3---5--1--3-|

Solo:

E-------------------12h15p12----12--------12--------------------------|
B-15^^-15-15^^v--------------15----15^^------15p12h15p12--12----------|
G-------------------------------------------------------------14^^v---|
D---------------------------------------------------------------------|
A---------------------------------------------------------------------|
E---------------------------------------------------------------------|

E--------------------------------------------------------------------------------|
B-------------------------------------------------------------12-12h14-12-15p12--|
G-14p12h14p12-12-------------------------------12h14p12-12h14--------------------|
D----------------14----------12h14p12----12h14-----------------------------------|
A----------------------12p14----------14-----------------------------------------|
E--------------------------------------------------------------------------------|

E-------------------------------------------------------------------------------|
B-15p12-12-12-15\--15h17p15----15h17p15h17----17p15h17p15-15-17-15----15-18^^v--|
G---------------------------16-------------16----------------------16-----------|
D-------------------------------------------------------------------------------|
A-------------------------------------------------------------------------------|
E-------------------------------------------------------------------------------|

tr\/\/\/\/   tr\/\/\/   tr\/\/\/   tr\/\/\/
E-12-15-12----------------------------------------------|
B-------------12-15-12----------------------------------|
G------------------------14p12h14--------------12--14---|
D-----------------------------------14p12h14------------|
A-------------------------------------------------------|
E-------------------------------------------------------|
tr\/\/\/\/= push the tremelo bar up and down (if you have one)

E----------------------------------17-----17------------------------0------------|
B-15-15-----------------12--------------------15---17-------------0----17--20^^^-|
G-------------------------------------------------------14----16-----------------|
D--------------------------------------------------------------------------------|
A--------------------------------------------------------------------------------|
E--------------------------------------------------------------------------------|

Bridge:

E----------------------------------------------------------------|
B----------------------------------------------------------------|
G----------------------------------------------------------------|
D---9-------9-------10-------11-------12-------------------------|
A---9-------9-------10-------11-------12-------------------------|
E---7-0-0-0-9-0-0-0-8--0-0-0-9--0-0-0-10-0-0-0-------------------|
      PM...   PM...    PM....   PM...    PM...

Play this twice

7.GANGLAND

Don't Know

8.HALLOWED BE THY NAME

|--------------------------------|--------------------------------|
|--12---10--8---7/8---7---5---7--|--12---10--8---7/8---7---5---4--|
|--------------------------------|--------------------------------|
|--------------------------------|--------------------------------|
|--10---9---7---5h7---5---3---5--|--10---9---7---5h7---5---3---2--|
|--------------------------------|--------------------------------|
   1    2   2   1 2   1   1   1     1    2   2   1 2   1   1   1

BASSLINE:

|---------------------------------------------------------|
|-----------------------------------------------0----0h2--|
|------------------------------------------3--------------|
|--0----0----0----0----0----0----0----0-------------------|

LEAD UNDER "Running Low" etc.
These first two bars are repeated over and over on the album
version. I've gone on to show roughly how it's played live
The first trill allows Dave to get the pick out of his teeth!

RIFF A:  with RHYTHM 1
|---------------------------------|-------------------------------|
|---------------------------------|-------------------------------|
|--14b16--14--12--11h12-11--9--11-|-14b16--14--12--11h12-11--9--8-|
|---------------------------------|-------------------------------|
|---------------------------------|-------------------------------|
|---------------------------------|-------------------------------|

(LIVE)
|--trill--------|-------------|-----------------------------------------|
|--10h12p10etc--|-------------|-----------------------------------15b17-|
|---------------|--RIFF A-X2--|--14b16-14b16-14b16-14b16~--14p12--------|
|---------------|-------------|-----------------------------------------|
|---------------|-------------|-----------------------------------------|
|---------------|-------------|-----------------------------------------|


RHYTHM 1:
This is doubled by the bass. It is the rhythm that is used for
the verses later on in the song aswell.
   E(m)           C             D           E(m)
|--------------|-------------|-----------|------------------------|
|--------------|-------------|-----------|------------------------|
|--------------|-------------|-----------|------------------------|
|--9-----------|--5----------|--7--------|--9--------5p4---5p4----|
|--7-----------|--3----------|--5--------|--7------------7-----7--|
|--------------|-------------|-----------|------------------------|

RIFF B:
This is the riff between 'Running Low' and 'When the priest..'
As I suspected I was playing this wrong-sheer laziness!
This should be a lot closer to the proper way. The hammers
and pulls may or may not be the actual way its played but if
you want to play it as fast as its played live it's
definitely the easiest way. Just listen carefully for the timing.

Bass plays Rhythm 1.

BOTH GUITARS
|----------------------------------|------------------------------|
|----------------------------------|------------------------------|
|--------------------4-------------|------------------4-----------|
|-----4h5p4-5-7p5p4-----5p4-5p4----|------4---4h5p4-7---5p4-5p4---|
|--7----------------------------7~-|----7---7-------------------7-|
|----------------------------------|------------------------------|


RHYTHM FOR SINGING:
   E(m)                  G  C               A  D
|-----------------------------------------------------------------|
|-----------------------------------------------------------------|
|-----------------------------------------------------------------|
|--9------------------------5------------------7------------------|
|--7---------------------5--3---------------7--5------------------|
|------------------------3------------------5---------------------|
    When the priest...       Take a look...      Of a world...

   B  E  B  C                     E
|------------------------------|------------------|
|------------------------------|------------------|
|------------------------------|------------------|
|-----9--4--5---------5-4------|------------------|
|--9--7--2--3--2-3-2------7-5--|-(Back to Start)--|
|--7---------------------------|------------------|

   E(m)     C        D        E  B  C                    E(m)
|-----------------------------------------------------|-----------|
|-----------------------------------------------------|-----------|
|-----------------------------------------------------|-----------|
|--9--------5--------7--------9--4--5--------5-4------|--9--------|
|--7--------3--------5--------7--2--3--2-3-2-----7-5--|--7-etc----|
|-----------------------------------------------------|-----------|
 Somebody...

After the singing play RIFF B

RIFF C:
Gtr I (Dave)
   E(m)
|-------------------------------------------------|
|-------------------------------------------------|
|-------------4---(4)----------4-----------4------|
|---------4-5--------5-4---4-5---5-4---4-5---5-4--|
|--7---(7)---------------7-----------7------------|
|-------------------------------------------------|

   C
|-------------------------------------------------|
|-------------------------------------------------|
|-------------4---(4)----------4-----------4------|
|---------4-5--------5-4---4-5---5-4---4-5---5-4--|
|--3---(3)---------------3-----------3------------|
|-------------------------------------------------|

Gtr II (Adrian) just plays the first measure above over and
over (i.e. doesn't change to C)and the bass plays in unison
with Dave.
Then Dave continues to play RIFF C,(leaving out the notes in brackets),
while Adrian plays the following harmony and Steve plays the following
bassline.

RIFF C HARMONY:
|------------------------------------------------|
|------------------------------------------------|
|-----------7---------------7-------------7------|
|--5----7-9------9-7-5--7-9----9-7-5--7-9---9-7--|
|------------------------------------------------|
|------------------------------------------------|


|-----------------------------------------------|
|-----------------------------------------------|
|-----------7/9------------7-------------7------|
|--5----7-9-----9-7-5--7-9----9-7-5--7-9---9-7--|
|-----------------------------------------------|
|-----------------------------------------------|

BASSLINE:
|-----------------|------------------|----|
|-----------------|------------------|----|
|--7----------7-5-|-3------------3-5-|-7--|
|-----------------|------------------|----|

NEXT VOCAL PART:
When the guards... etc.  This is played with RHYTHM 1.

Then it goes back to RIFF C with Dave playing RIFF C as
written without the notes in brackets and Adrian playing
the first bar over and over (as before).

BRIDGE:
Gtr I (Dave)
|------------------------------------------------------|
|-----12-----------12-----------12-----------12--------|
|--9-----11-12--9-----11-12--9-----11-12--9-----11-12--|
|------------------------------------------------------|
|------------------------------------------------------|
|------------------------------------------------------|

RHYTHM:
|-------------------------------------------|
|-------------------------------------------|
|-----9----------------5-------------9------|
|--9--9-------------5--5----------9--9------|
|--9--7-------------5--3----------9--7-etc--|
|--7----------------3-------------7---------|

FAST BIT:
|--------------------------------------------|
|--------------------------------------------|
|-----------------4--------------------------|
|-----4--5--4--5-----5--4--5--4--------5--7--|
|--7-----------------------------7--5--3--5--|
|--------------------------------------------|

RHYTHM FOR SOLO'S:

   E(m)
|---------------------------------------------------|
|---------------------------------------------------|
|---------------------------------------------------|
|--9--------------------------------5p4--0----------|
|--7----------------------------------------3p2-----|
|--0---------------------------------------------3--|

   D
|---------------------------------------------------|
|---------------------------------------------------|
|---------------------------------------------------|
|--7--------------------------------5p4--0----------|
|--5----------------------------------------3p2-----|
|------------------------------------------------3--|


BIT AFTER SOLO'S:
Play three times

   E(m)
|--------------------------------------------------------------|
|--------------------------------------------------------------|
|--------------------------------------------------------------|
|--9---------------------------------5-------------5-----------|
|--7------------------------------7-----7--5----7-----7--5--7--|
|--0-----------------------------------------------------------|

On the third repeat Adrian plays:
|--------------------------------------------------------------|
|--------------------------------------------------------------|
|------------------------------------7~------------5~----------|
|--9------------------------------7-----7--5----7-----7--5--7--|
|--7-----------------------------------------------------------|
|--0-----------------------------------------------------------|

BOTH GUITARS
|--------------------------------------------------------------|
|--------------------------------------------------------------|
|--------------------------------------------------------------|
|--9-----------------------------------------------------------|
|--7---STRUM---------------------------------------------------|
|--0-----------------------------------------------------------|


HARMONY:
Dave plays RIFF B as before and Adrian plays the following.
What I said earlier about tha hammers and pulls still applies.

|------------------------------------|----------------------------------|
|------------------------------------|----------------------------------|
|----------------------7-------------|----------------------7-----------|
|-----7h9p7-9--10p9p7----9p7-9p7-----|--------7----7h9p7-10---9p7-9p7---|
|--10----------------------------10~-|-----10---10--------------------10|
|------------------------------------|----------------------------------|

As the harmony part nears it's end the following part is played
in place of the second bar of RIFF B:

   E(m)   B(m)   C
|----------------------------------------------------|
|----------------------------------------------------|
|----------------------------------------------------|
|--9------4------5-------------------5---4-----------|
|--7------2------3-----2---3---2-------------7----5--|
|----------------------------------------------------|

ENDING:
For Yeah, Yeah, Yeah... play RHYTHM 1. When Dave returns to
the E power chord he plays a dive bomb with the T-bar.
Then play the lead part from the BRIDGE as shown above except
with this rhythm part.

   B   E(m)           A   D          G   C          A   D
|-----------------------------------------------------------------|
|-----------------------------------------------------------------|
|------9------------------7--------------5--------------7---------|
|--9---9--------------7---7----------5---5----------7---7---------|
|--9---7--------------7---5----------5---3----------7---5---------|
|--7------------------5--------------3--------------5-------------|

and eventually
    B   E(m)
|-------------------------------------0-0-0-0-----0-0-0-0---------|
|-------------------------------------0-0-0-0-----0-0-0-0---------|
|-------9-----------------------------9-9-9-9-----9-9-9-9---------|
|---9---9-----------------------------9-9-9-9-----9-9-9-9---------|
|---9---7-STRUM-----------------------7-7-7-7-----7-7-7-7---------|
|---7---------------------------------0-0-0-0-----0-0-0-0---------|


Solo 1: (Dave)
  (D5)               E5
|-------------------------------------------|
|---------------------------------------/5--|
|--------------------2b(4)~~--2b(4)r2~~-----|
|--0\---------------------------------------|
|--0\ PICK SCRAPE---------------------------|
|-------------------------------------------|


|--------------------------------------------------------|
|--5p3p0-h5p3p0-h5p3p0-h3p0-h5p3p0-h5p3p0-h5p3p0-h5p3p0--|
|--------------------------------------------------------|
|--------------------------------------------------------|
|--------------------------------------------------------|
|--------------------------------------------------------|

   D5
|---------------------------------------------------|
|--8p5p0-7p5p0-8p5p0-7p5p0-8p5p0-7p5p0-8p5p0-7p5p0--|
|---------------------------------------------------|
|---------------------------------------------------|
|---------------------------------------------------|
|---------------------------------------------------|


|-----------------------------------------|
|--8p5p0-7p5p0-8p5p0----------------------|
|---------------------5-s/-12p9h12--9-s\--|
|-----------------------------------------|
|-----------------------------------------|
|-----------------------------------------|

                         E5
|----------------12--------------12--15--12------|
|--------13--15------12--15b(17)-------------12--|
|--s/-14-----------------------------------------|
|------------------------------------------------|
|------------------------------------------------|
|------------------------------------------------|


|--12--15--12---12------12---12----12---------------------|
|-------------------15----------15------15p12--15p12--12--|
|---------------------------------------------------------|
|---------------------------------------------------------|
|---------------------------------------------------------|
|---------------------------------------------------------|


|------------------------------------------------------|
|------------------------------------------------------|
|--14p12--14p12--12------------------------------------|
|--------------------12------14----12------------------|
|------------------------14------14-----14-Tbar-\-(2)--|
|------------------------------------------------------|

             D5
|------PH-----------------------------------------------------|
|--12--17b(20)--HOLD BEND--r17-b(20)-r17-b(20)-r17-b(20)-r17--|
|--12---------------------------------------------------------|
|-------------------------------------------------------------|
|-------------------------------------------------------------|
|-------------------------------------------------------------|


|-----------------------------------------------------------------|
|--b(20)-r17----15h17p15--15--h17p15h17p15h17p15h17p15h17p15h17-s\|
|-----------------------------------------------------------------|
|-----------------------------------------------------------------|
|-----------------------------------------------------------------|
|-----------------------------------------------------------------|

                    E5
|--17b(19)-------17b(19)-r17--15--15--|
|-------------------------------------|
|-------------------------------------|
|-------------------------------------|
|-------------------------------------|
|-------------------------------------|


Solo 2: (Adrian)
   E5
|-----------------------------------------------------------------|
|--15b(17)----(17)r15--12-------------12----12--------------------|
|-------------(16)r15------14b(16)~~-----14----14--12h14p12-------|
|-----------------------------------------------------------14----|
|-----------------------------------------------------------------|
|-----------------------------------------------------------------|

                            D5
|---------------------------17p14-----19p14-----17p14-----|
|------------------s/-15~~--------15--------15--------15--|
|---------------------------------------------------------|
|--14--14-s\----------------------------------------------|
|---------------------------------------------------------|
|---------------------------------------------------------|


|--19p14-----17p14-----19p14-----17p14-----19p14-----|
|--------15--------15--------15--------15--------15--|
|----------------------------------------------------|
|----------------------------------------------------|
|----------------------------------------------------|
|----------------------------------------------------|


|--17p14-----19p14------14~~-------------12--12--|
|--------15--------15---15~~---------15----------|
|------------------------------------------------|
|------------------------------------------------|
|------------------------------------------------|
|------------------------------------------------|

   E5
|--15p12----12----------------------------------------------------|
|--------15----15--12----15p12----12------------------------------|
|------------------------------14----14--12----14p12----12--------|
|----------------------------------------------------14----14--12-|
|-----------------------------------------------------------------|
|-----------------------------------------------------------------|


|-----------------------------------------------------------------|
|-----------------------------------------------------------------|
|----------------------12--------12--14b(16)--14p12----9b(12)r9-9-|
|--14p12-----------12--12----14---------------------14------------|
|--------14--12h14------------------------------------------------|
|-----------------------------------------------------------------|

             D5
            T  P  H   T  P  H   T  P  H   T  P  H
|--10--12----20-10-12--19-10-12--20-10-12--19-10-12--|
|----------------------------------------------------|
|----------------------------------------------------|
|----------------------------------------------------|
|----------------------------------------------------|
|----------------------------------------------------|


  T  P  H   T  P  H   T  P  H   T  P  H   T  P  H   T  P  H   P
|--17-10-12--19-10-12--17-10-12--15-10-12--14-10-12--15-10-12--10-|
|-----------------------------------------------------------------|
|-----------------------------------------------------------------|
|-----------------------------------------------------------------|
|-----------------------------------------------------------------|
|-----------------------------------------------------------------|


|-----------------------------------------------------------------|
|--(17)r15-s/-17-17b(19)-r17-b(19)-r17-b(19)-r17-b(19)-r17-b(19)--|
|-----------------------------------------------------------------|
|-----------------------------------------------------------------|
|-----------------------------------------------------------------|
|-----------------------------------------------------------------|

9.TOTAL ECLIPSE

Intro:
E---------------------------|-------1-----------3------|
B---------------------------|---------1-----------3----|
G---------------------------|-----------2-----------4--|
D--7-----5-5-----5-----7-7--|--------------------------|
A--7-----5-5-----3-----5-5--|----3-----------5---------|
E--5-----3-3-----3-----5-5--|--1-----------3-----------|

E-----------------------------------------|-------1-----------3------|
B-----------------------------------------|---------1-----------3----|
G-----------------------------------------|-----------2-----------4--|
D--7-----5-5-----7-----5-5-----5-----7-7--|--------------------------|
A--7-----5-5-----7-----5-5-----3-----5-5--|----3-----------5---------|
E--5-----3-3-----5-----3-3-----3-----5-5--|--1-----------3-----------|

Riff 2:
E-----------------------------|-----------------------------|
B-----------------------------|-----------------------------|
G--2---------2---2---------2--|--7---------7---9---------9--|
D--2---------2---3---------3--|--5---------5---7---------7--|
A--0---0-0-0-0---0---0-0-0-0--|--0---0-0-0-0---0---0-0-0-0--|
E-----------------------------|-----------------------------|

Chorus:
           Sunrise is gone                     freezing up the fires
E-----------------------------------|-------------------------------------------|
B-----------------------------------|-------------------------------------------|
G-----------------------------------|-------------------------------------------|
D-----------------------------------|------------------------------2------------|
A--1-2-1----------------------------|--1-2-1-----------------------0---1-2-1----|
E--------3-0-0-0-0-0-0-0-0-0-0-0-0--|--------3-0-0-0-0-0-0-0-0-3-------------3--|

           Sunrise is gone                     numbing all desires
E-----------------------------------|-------------------------------------------|
B-----------------------------------|-------------------------------------------|
G-----------------------------------|-------------------------------------------|
D-----------------------------------|------------------------------2------------|
A--1-2-1----------------------------|--1-2-1-----------------------0------------|
E--------3-0-0-0-0-0-0-0-0-0-0-0-0--|--------3-0-0-0-0-0-0-0-0-3----------------|

Riff 3:
E-----------------------|--1-----------3-----------|
B-----------------------|--1-----------3-----------|
G-----------------------|--2-----------4-----------|
D--7-----5-----5-----7--|--3-----------5-----------|
A--7-----5-----3-----5--|--3-----------5-----------|
E--5-----3-----3-----5--|--1-----------3-----------|

E-----------------------------------|--1-----------3-----------|
B-----------------------------------|--1-----------3-----------|
G-----------------------------------|--2-----------4-----------|
D--7-----5-----7-----5-----5-----7--|--3-----------5-----------|
A--7-----5-----7-----5-----3-----5--|--3-----------5-----------|
E--5-----3-----5-----3-----3-----5--|--1-----------3-----------|

Solo-riff 1:
E---------------------------------------------|
B---------------------------------------------|
G---------------------------------------------|
D--------------------------------------5---7--|
A--7---7-7-7-7-7---7-7-7-7-7---7-7-7-7-3---5--|
E---------------------------------------------|

Solo-riff 2:
E-------------------------------------------|
B-------------------------------------------|
G-------------------------------------------|
D----------------------------------------5--|
A----------------------------------------5--|
E--2---2-2-2-2-2---2-2-2-2-2---2-2-2-2-2-3--|

On the fourth time of Solo-riff 2:
E-------------------------------------------------|
B-------------------------------------------------|
G-------------------------------------------------|
D-------------------------5--4--2-----------------|
A----------------------------------5--4--2--------|
E--2---2-2-2-2-2--2-2-2-2-------------------5--3--|

Riff 4:
   Gone are the days when man looked down
E--1------------0---------0----------3------------|
B--3------------1---------1----------3------------|
G--2------------2---------0----------0------------|
D--0------------2---------2----------0------------|
A---------------0---------3----------2------------|
E------------------------------------3------------|
   They've taken away his sacred crown
E--1------------0---------0----------3------------|
B--3------------1---------1----------3------------|
G--2------------2---------0----------0------------|
D--0------------2---------2----------0------------|
A---------------0---------3----------2------------|
E------------------------------------3------------|

   To be so free, it took so long
E--1------------0---------0----------3------------|
B--3------------1---------1----------3------------|
G--2------------2---------0----------0------------|
D--0------------2---------2----------0------------|
A---------------0---------3----------2------------|
E------------------------------------3------------|

   It's not the journeys end, it's just begun
E--1------------0---------0----------3------------|
B--3------------1---------1----------3------------|
G--2------------2---------0----------0------------|
D--0------------2---------2----------0------------|
A---------------0---------3----------2------------|
E------------------------------------3------------|

Outro:
E---------------------------|-------1-----------3------|
B---------------------------|---------1-----------3----|
G---------------------------|-----------2-----------4--|
D--7-----5-5-----5-----7-7--|--------------------------|
A--7-----5-5-----3-----5-5--|----3-----------5---------|
E--5-----3-3-----3-----5-5--|--1-----------3-----------|

E-----------------------------------------|-------1-----------3----------------|
B-----------------------------------------|---------1-----------3--------------|
G-----------------------------------------|-----------2-----------4------------|
D--7-----5-5-----7-----5-5-----5-----7-7--|-------------------------7-----5-5--|
A--7-----5-5-----7-----5-5-----3-----5-5--|----3-----------5--------7-----5-5--|
E--5-----3-3-----5-----3-3-----3-----5-5--|--1-----------3----------5-----3-3--|
comments
print report bad tab
7 comments total. Showing first comments. show 1 bad comment
+1 reply
Noxkid457 wrote on December 18 2004, 12:00 am

The intro is way off.

-2 reply
Jeffray85 wrote on May 22 2008, 04:28 pm

thanks for the tabs man, good job, i had fun with this!

I want to post or [tab]
guest
You may want to rate the tab now too:
select rating
Please do not post tabs as comments. Select "correction" instead!