Oops, an error
Loading. Please wait.

The Number Of The Beast Tab

ver1
ver1

Album

Solo

Whole song

More versions @911Tabs.com
600,650 views 945 this week
70 commentsread comments
1 2 3 4 5
excellent!
x 132
Autoscroll
+/-
esc
set tempo
stop
Contributor
Hey! There's an official Ultimate Guitar app which is ideal
for learning songs when you're away from computer. Get the app
WARNING: You are trying to view
                                    content from Ultimate-Guitar.com
                                    in an unauthorized application,
                                    which is prohibited.

                                    Please use an official Ultimate
                                    Guitar Tabs application for iPhone,
                                    iPad or Android to access legitimate
                                    chords, guitar, bass, and drum tabs
                                    from Ultimate-Guitar.com database.

                                    Type "ultimate guitar tabs" in Apple
                                    App Store's or Android Market's
                                    search to find the application.
-------------------------------------------------------------------------------
                            Number Of The Beast - Iron Madien
-------------------------------------------------------------------------------

By: Brian Irvine (brian_dino@hotmail.com)

This is A big long song so i hope u apprecate the work i put into it. Feel free to add me
to ur MSN contact list.

p:pull off
h: hammer on
s:slide
BU: bend up
BD: bend down

INTRO
e|---------------------------------------------------------------------------|
B|---------------------------------------------------------------------------|
G|---------------------------------------------------------------------------|
D|--------4---5---7-----7-----7-----7-----7-------4---5----------------------|
A|--5-5-5---5---5---5-5---5-5---5-5---5-5---5-5-5---5---5--------------------|
E|---------------------------------------------------------------------------|
  pm........................................................

VERSE
e|---------------------------------------------------------------------------|
B|---------------------------------------------------------------------------|
G|---------------------------------------------------------------------------|
D|-7-----7-----7-----7-----7-------4---5----7-----7-----7--------------------|
A|---5-5---5-5---5-5---5-5---5-5-5---5---5----5-5---5-5---5------------------|
E|---------------------------------------------------------------------------|
  pm..........................................................

e|---------------------------------------------------------------------------|
B|---------------------------------------------------------------------------|
G|---------------------------------------------------------------------------|
D|----7--------7---------2-----3------5--------5---------5-------------------|
A|-5-----5--5-----3-3-3-----3-----3------3--3-----3---3------3---------------|
E|---------------------------------------------------------------------------|
 pm..............................................................

e|---------------------------------------------------------------------------|
B|---------------------------------------------------------------------------|
G|---------------------------------------------------------------------------|
D|----5------5---------2-----3----7-------7--------7-------------------------|
A|-3----3--3----3-3-3-----3----3----5--5-----5--5-----5----------------------|
E|---------------------------------------------------------------------------|
  pm......................................................

e|---------------------------------------------------------------------------|
B|---------------------------------------------------------------------------|
G|---------------------------------------------------7-7-7-------------------|
D|----7--------7-----------4-----5--------7------7---7-7-7-------------------|
A|-5-----5--5-----5--5--5-----5----5---5----5--5-----5-5-5-------------------|
E|---------------------------------------------------------------------------|
  pm..............................................

Chours Hits Cont'd (this part needs good counting so listen to the song)
e|-----------------------------------------------------------------------------|
B|-----------------------------------------------------------------------------|
G|-7----7----------------------7-7-7-7------7---------------------7-7-7-7----7-|
D|-7----7----------------------7-7-7-7------7---------------------7-7-7-7----7-|
A|-5----5----------------------5-5-5-5------5---------------------5-5-5-5----5-|
E|-----------------------------------------------------------------------------|

Verse 2
e|---------------------------------------------------------------------------|
B|---------------------------------------------------------------------------|
G|-7-7-7-7----------7-7-7-7--------7-7-7-----7-7-7-7-------7-7---------------|
D|-7-7-7-7----------7-7-7-7--------7-7-7-----7-7-7-7-------7-7---------------|
A|-----------5-5--------------5-5---------5-----------5-5--------------------|
E|---------------------------------------------------------------------------|
          pm....           pm....       pm..        pm...
e|---------------------------------------------------------------------------|
B|---------------------------------------------------------------------------|
G|-7-7-------7-7-7-----7-7-7-7-------7-7-7-7-------7-7--7\-------------------|
D|-7-7-------7-7-7-----7-7-7-7-------7-7-7-7-------7-7--7\-------------------|
A|------5-5---------5-----------5-5-----------5-5-------5\-------------------|
E|---------------------------------------------------------------------------|
     pm....      pm...       pm.....        pm....

e|---------------------------------------------------------------------------|
B|---------------------------------------------------------------------------|
G|-------------------7-7-7-7-7--------7-7-7-7--------------------------------|
D|---------------7-7-7-7-7-7-7----7-7-7-7-7-7-5------------------------------|
A|-3-3-3-3-2---5-5-5-5-5-5-5-5--5-5-5-5-5-5-5-3------------------------------|
E|-----------3 <-bend a quater tone------------------------------------------|
  

Chours  
e|---------------------------------------------------------------------------|
B|---------------------------------------------------------------------------|
G|----------------------------------------------------------7----------------|
D|-----------5---------------------5------------------------7----------------|
A|--3--3--3--2---------------------3------------------------5----------------|
E|---------------------------------------------------------------------------|

e|---------------------------------------------------------------------------|
B|---------------------------------------------------------------------------|
G|-7--7--7--7--7--7----------------------------------------------------------|
D|-7--7--7--7--7--7--5--------------------5-------------------------5--------|
A|-5--5--5--5--5--5--3-----------3--3--3--2-------------------------3--------|
E|---------------------------------------------------------------------------|

e|---------------------------------------------------------------------------|
B|--7--7--7--7--------7--7--7--7---------7--7--7-----------------------------|
G|--7--7--7--7--------7--7--7--7---------7--7--7-----------------------------|
D|--------------5---5-------------5---5------------5-------------------------|
A|---------------------------------------------------------------------------|
E|---------------------------------------------------------------------------|
              pm.....          pm.......
Interlude
e|---------------------------------------------------------------------------|
B|-2-2-2-4----2---4-4-4-5----4-----5-5-5-7---5---7-7-7-7-7-7-7-7-------------|
G|-0-0-0-0----0---0-0-0-0----0-----0-0-0-0---0---0-0-0-0-0-0-0-0-------------|
D|---------------------------------------------------------------------------|
A|---------------------------------------------------------------------------|
E|---------------------------------------------------------------------------|

Solo                       BU
e|--10h13p10-----------------------------------------------------------------|
B|-----------11--10-----11(13)---------10h11p10--8h10p8h10p8h10  ------------|
G|---------------------------------------------------------------------------|
D|---------------------------------------------------------------------------|
A|---------------------------------------------------------------------------|
E|---------------------------------------------------------------------------|

e|-----------------------------10h12p10h12p10h12p10h12-----------------------|
B|-8--6h8p6h8p6h8p6-5--5-----------------------------------------------------|
G|---------------------------------------------------------------------------|
D|---------------------------------------------------------------------------|
A|---------------------------------------------------------------------------|
E|---------------------------------------------------------------------------|

e|-p10h13p10h13p10h13p10h13p10h13p10h12p10h12p10h12p10h12p10h12010h12p10h12p10-13-|
B|--------------------------------------------------------------------------------|
G|--------------------------------------------------------------------------------|
D|--------------------------------------------------------------------------------|
A|--------------------------------------------------------------------------------|
E|--------------------------------------------------------------------------------|
     BU    BU grad                  BU~~~~~~        BU~~~~~~~~   
e|--(14)-------------(16)---------13(16)------------13(16)-------------------|
B|---------------------------------------------------------------------------|
G|---------------------------------------------------------------------------|
D|---------------------------------------------------------------------------|
A|---------------------------------------------------------------------------|
E|---------------------------------------------------------------------------|

e|-10h13p10----10h13p10s9h10p8h10p8h10p8-------------------------------------|
B|----------13---------------------------10----------------------------------|
G|---------------------------------------------------------------------------|
D|---------------------------------------------------------------------------|
A|---------------------------------------------------------------------------|
E|---------------------------------------------------------------------------|

e|---------------------------------------------------------------------------|
B|-11h13p11h13p11h13-10h11p10h11p10s8h10p8s6h8p6s5h6p5-----------------------|
G|---------------------------------------------------------------------------|
D|---------------------------------------------------------------------------|
A|---------------------------------------------------------------------------|
E|---------------------------------------------------------------------------|

e|---------------------------------------------------------------------------|
B|---------------------------------------------13h15p13----------------------|
G|---5---3------BU----------BD-----------------------------------------------|
D|-----------5------(7)---------(5)------------------------------------------|
A|---------------------------------------------------------------------------|
E|---------------------------------------------------------------------------|
                                                    BU
e|---------------------------------------------------------------------------|
B|-15------17h18p17p15 17h18p17p15---18------20--20(22)------(22)------------|
G|---------------------------------------------------------------------------|
D|---------------------------------------------------------------------------|
A|---------------------------------------------------------------------------|
E|---------------------------------------------------------------------------|
       rp~~~~~~                 BU
e|---------------------------20(22)------(22)-----(22)-----------------------|
B|--(22)----------------18---------------------------------------------------|
G|---------------------------------------------------------------------------|
D|---------------------------------------------------------------------------|
A|---------------------------------------------------------------------------|
E|---------------------------------------------------------------------------|

Break
e|---------------------------------------------------------------------------|
B|---------------------------------------------------------------------------|
G|------7-----5----------------------------5--5--5--5--3---------------------|
D|-/5------5-----7-----5--------5----------5--5--5--5--3---------------------|
A|--------------------------7------7---6---5--3--3--3--1---------------------|
E|---------------------------------------------------------------------------|

e|---------------------------------------------------------------------------|
B|---------------------------------------------------------------------------|
G|------3-------1------------------------------------------------------------|
D|-/3------3-------3---1-----1------------5--5--5--3------------3------------|
A|------------------------3-----3--2---1--5--5--5--3------------3------------|
E|----------------------------------------3--3--3--1--------1---1------------|

e|---------------------------------------------------------------------------|
B|---------------------------------------------------------------------------|
G|---------------------------------5----5-----7------------------------------|
D|------5-----------------7---7----5----5-----7------------------------------|
A|------5-----------------7---7----3----3-----5------------------------------|
E|--3---3------3---3---3--5---5----------------------------------------------|

2nd Solo
    BU                BU             BU           BU            BU  BD
e|---------8--8--8---------8---8----------8---8--------8---8-----------------|
B|-11(13)-----------11(13)--------11(13)--------11(13)--------11(13)---(11)--|
G|---------------------------------------------------------------------------|
D|---------------------------------------------------------------------------|
A|---------------------------------------------------------------------------|
E|---------------------------------------------------------------------------|
                                                  BU
e|--------------------------------------------------------10-10-10-13p10-----|
B|-10---------------------------------10------13----(15)---------------------|
G|-10------------------------------------------------------------------------|
D|------12----10-------------12----------------------------------------------|
A|-----------------12--------------------------------------------------------|
E|---------------------------------------------------------------------------|

e|-------------10---12p10-----10---------------------------------------------|
B|--13--10h13--------------13-----13p10-13p10-----13p10----------------------|
G|--------------------------------------------12---------12------------------|
D|---------------------------------------------------------------------------|
A|---------------------------------------------------------------------------|
E|---------------------------------------------------------------------------|
              BU             BD                                 BU
e|---------------------------------------------------------------------------|
B|----------12(13)----------------(12)p10------------------------------------|
G|-10-------------------------------------12----------\------17--(19)--------|
D|------12-------------------------------------------------------------------|
A|---------------------------------------------------------------------------|
E|---------------------------------------------------------------------------|
              BU                 BU               BU                BU     
e|---------------------------------------------------------------------------|
B|-15--18------------15---18------------15--18-----------15---18-------------|
G|----------17(19)-------------17(19)-----------17(19)------------17(19)-----|
D|---------------------------------------------------------------------------|
A|---------------------------------------------------------------------------|
E|---------------------------------------------------------------------------|
              BU                 BU               BU              BU
e|---------------------------------------------------------------------------|
B|-15h18p15----------15h18p15-----------15h18p15--------15h18p15-------------|
G|-----------17(19)------------17(19)------------17(19)-----------17(19)-----|
D|---------------------------------------------------------------------------|
A|---------------------------------------------------------------------------|
E|---------------------------------------------------------------------------|
               BU             BU              BU               BU~~~~~~~
e|---------------------------------------------------------------------------|
B|-15h18p15---------15h18p15--------15h18p15--------15h18p15--18(20)---------|
G|-----------17(19)----------17(19)----------17(19)--------------------------|
D|---------------------------------------------------------------------------|
A|---------------------------------------------------------------------------|
E|---------------------------------------------------------------------------|
    BU                       BU                        BU~~~~~~~~~~~
e|-----------17p15--------------------17p15----------------------------------|
B|-18(20)----------18--15--18(20)-----------18--15--18(20)-------------------|
G|---------------------------------------------------------------------------|
D|---------------------------------------------------------------------------|
A|---------------------------------------------------------------------------|
E|---------------------------------------------------------------------------|
          BU                       BU       BD
e|--20---------------(22)---------20(22)---------(20)------------------------|
B|----------------------------------------------------------18---------------|
G|------------------------------------------------------------------19-------|
D|---------------------------------------------------------------------------|
A|---------------------------------------------------------------------------|
E|---------------------------------------------------------------------------|

 
Enjoy! e-mail me with any questions of comments regarding the tab.
comments
print report bad tab
70 comments total. Showing first comments.
+1 reply
gazlowton wrote on February 16 2004, 12:00 am

Good tab

+1 reply
Cloud147 wrote on December 18 2005, 01:53 pm

nice

+1 reply
Randy7Rhoads wrote on January 17 2006, 05:48 pm

NIce

I want to post or [tab]
guest
You may want to rate the tab now too:
select rating
Please do not post tabs as comments. Select "correction" instead!