Oops, an error
Loading. Please wait.

Virtual Xi Tab

4,987 views 6 this week
2 commentsread comments
1 2 3 4 5
worth learning
x 2
add to favorites launch autoscroll
font size
0
reset
Autoscroll
+/-
esc
set tempo
stop
Contributor
WARNING: You are trying to view
                                    content from Ultimate-Guitar.com
                                    in an unauthorized application,
                                    which is prohibited.

                                    Please use an official Ultimate
                                    Guitar Tabs application for iPhone,
                                    iPad or Android to access legitimate
                                    chords, guitar, bass, and drum tabs
                                    from Ultimate-Guitar.com database.

                                    Type "ultimate guitar tabs" in Apple
                                    App Store's or Android Market's
                                    search to find the application.
Band- Iron Maiden
Album- Virtual XI

1.FUTUREAL

INTRO-Riff (play it 4 times, guitar II plays the chords):

  Em                         Em
|--------------------------|--------------------------|
|--------------------------|--------------------------|
|--------------------------|--------------------------|
|-14--16-17-14-16h17p16p14-|-14--16-17-14-16h17p16p14-|
|--------------------------|--------------------------|
|--------------------------|--------------------------|

  Em                         Em
|--------------------------|------------------------------|
|--------------------------|------------------------------|
|--------------------------|------------------------------|
|-14--16-17-14-16h17p16p14-|-14--16--17--16--14--17-16-14-|
|--------------------------|------------------------------|
|--------------------------|------------------------------|


First Verse (play this 2 times):

  Em               Em               Em               Em
|----------------|----------------|----------------|------------|
|----------------|----------------|----------------|------------|
|-9--------------|-9--------------|-9--------------|-9--9--9--9-|
|-9--------------|-9--------------|-9--------------|-9--9--9--9-|
|-7--7-7-7-7-7-7-|-7--7-7-7-7-7-7-|-7--7-7-7-7-7-7-|-7--7--7--7-|
|----------------|----------------|----------------|------------|
 I'm running out...

  C              D              Em                      Em
|--------------|--------------|-----------------------|-----------------------|
|--------------|--------------|-----------------------|-----------------------|
|-5------------|-7------------|-9--11-12-9-11h12p11p9-|-9--11-12-9-11h12p11p9-|
|-5------------|-7------------|-9---------------------|-----------------------|
|-3------------|-5------------|-7---------------------|-----------------------|
|--------------|--------------|-----------------------|-----------------------|
 ..night in the day feel like   Death...


after the Verse play this:

  C              D              C              D
|--------------|--------------|--------------|--------------|
|--------------|--------------|--------------|--------------|
|-5------------|-7------------|-5------------|-7------------|
|-5------------|-7------------|-5------------|-7------------|
|-3------------|-5------------|-3------------|-5------------|
|--------------|--------------|--------------|--------------|
    Do you ...


CHORUS Riff (guitar II plays the chords): play it 4 times

  Em            C       D-------let ring-----------|
|--------------------------|-----------------------|
|--------------------------|-----------------------|
|--------------------------|-----------------------|
|-14--16-17-------14-16----|-----14-----17-16-14---|
|-----------15-17-------17-|-17------17------------|
|--------------------------|-----------------------|


Second Verse (play this 2 times):

  Em             Em             Em             Em
|----------------|----------------|----------------|------------|
|----------------|----------------|----------------|------------|
|-9--------------|-9--------------|-9--------------|-9--9--9--9-|
|-9--------------|-9--------------|-9--------------|-9--9--9--9-|
|-7--7-7-7-7-7-7-|-7--7-7-7-7-7-7-|-7--7-7-7-7-7-7-|-7--7--7--7-|
|----------------|----------------|----------------|------------|
 Whenever anyone...

  C              D              Em                      Em
|--------------|--------------|-----------------------|-----------------------|
|--------------|--------------|-----------------------|-----------------------|
|-5------------|-7------------|-9--11-12-9-11h12p11p9-|-9--11-12-9-11h12p11p9-|
|-5------------|-7------------|-9---------------------|-----------------------|
|-3------------|-5------------|-7---------------------|-----------------------|
|--------------|--------------|-----------------------|-----------------------|
 ..feels that I  know what is   real


after the Verse play this:

  C              D              C              D
|--------------|--------------|--------------|--------------|
|--------------|--------------|--------------|--------------|
|-5------------|-7------------|-5------------|-7------------|
|-5------------|-7------------|-5------------|-7------------|
|-3------------|-5------------|-3------------|-5------------|
|--------------|--------------|--------------|--------------|
    Do you ...

CHORUS Riff (guitar II plays the chords): play it 4 times

  Em            C       D-------let ring-----------|
|--------------------------|-----------------------|
|--------------------------|-----------------------|
|--------------------------|-----------------------|
|-14--16-17-------14-16----|-----14-----17-16-14---|
|-----------15-17-------17-|-17------17------------|
|--------------------------|-----------------------|

SOLO

Riff after Solo (play 8 times)

  Em                         Em
|--------------------------|-----------------------|
|--------------------------|-----------------------|
|--------------------------|--------17---14---16---|
|-14--16-17-14-16h17p16p14-|-14--16----------------|
|--------------------------|-----------------------|
|--------------------------|-----------------------|

then play the intro-riff two more times:

  Em                         Em
|--------------------------|--------------------------|
|--------------------------|--------------------------|
|--------------------------|--------------------------|
|-14--16-17-14-16h17p16p14-|-14--16-17-14-16h17p16p14-|
|--------------------------|--------------------------|
|--------------------------|--------------------------|

  Em                         Em
|--------------------------|------------------------------|
|--------------------------|------------------------------|
|--------------------------|------------------------------|
|-14--16-17-14-16h17p16p14-|-14--16--17--16--14--17-16-14-|
|--------------------------|------------------------------|
|--------------------------|------------------------------|

 Play the bridge once more:

  C              D              C              D
|--------------|--------------|--------------|--------------|
|--------------|--------------|--------------|--------------|
|-5------------|-7------------|-5------------|-7------------|
|-5------------|-7------------|-5------------|-7------------|
|-3------------|-5------------|-3------------|-5------------|
|--------------|--------------|--------------|--------------|
    Do you ...

Then the CHORUS-part 8 more times:

  Em            C       D-------let ring-----------|
|--------------------------|-----------------------|
|--------------------------|-----------------------|
|--------------------------|-----------------------|
|-14--16-17-------14-16----|-----14-----17-16-14---|
|-----------15-17-------17-|-17------17------------|
|--------------------------|-----------------------|

2.THE ANGEL AND THE GAMBLER

INTRO
 A      REPEAT 4-TIMES                       A
 ----------------------------------------------------------------------------------------|
 ----------------------------------------------------------------------------------------|
 ----------------------------------------------------------------------------------------|
 14----14-14-14-14-14-14---14---16-14-12-----14-----14-14-14-14-14-14---14---16-14-12----|
 12----12-12-12-12-12-12---12---12-12-12-----12-----12-12-12-12-12-12---12---12-12-12----|
 ----------------------------------------------------------------------------------------|

 G					      D                             C      D
 ----------------------------------------------------------------------------------------|
 ----------------------------------------------------------------------------------------|
 ----------------------------------------------------------------------------------------|
 12----12-12-12-12-12-12---12---14-12-10-------------------------------------------------|
 10----10-10-10-10-10-10---10---10-10-10------12-12-12-12-12-12-12-12-12----10----12-----|
 ---------------------------------------------10-10-10-10-10-10-10-10-10-----8----10-----|

 A           A          A               A
 Roll on the dice Take a spin on the wheel
 A           A          A               A
 Out of your hands now So how do you feel
             G                    D              A
 But you�re not gonna win You�d better go back again

 A           A          A             A
 Do you fell lucky Or do you feel scared
 A           A          A             A
 Take what luck brings And the devil may care
             G                     D                       A
 But you�re down on your luck And what will the next day bring


  G                      G
 Adrift on the ocean Afloat in a day dream
  D            A        D            A
 Or lost in a maze Or blind in the Haze
  G                      G
 So what does it matter So why don�t you answer
  D              A        D       A
 So why did you send An angel to mend


  A           A           A            A
 Best make decisions Before it�s too late
 A                A           A
 Take all your chances Take hold of the reins
     G                D                A
 A roll of the dice Ahead of the game again

  A        A          A         A
 Nothing to lose But so much to gain
  A        A             A     A
 A little danger It goes whitout saying
       G                      D              A
 But what do you care You�re gonna go in the end


               G                     G
 Gate open to heaven Is ready and waiting
         D             A      D            A
 or straight down to hell Can go there as well


                G               G             G
 i�ll suffer my craving My soul�s not worth saving
     D             A       D            A
 So why don�t you go Just leave well alone

  A                     A
 Don�t you think i�m a saviour
   G                 G
 Don�t you think I could save you
  D            D                    A
 Don�t you think I could save your life

  A                     A
 Don�t you think i�m a saviour
  D                 D
 Don�t you think I could save you
  G            G                    A
 Don�t you think I could save your life


 A                     A
 Don�t you think i�m a saviour
   G                 G
 Don�t you think I could save you
  D            D                    A
 Don�t you think I could save your life


  A                     A
 Don�t you think i�m a saviour
  D                 D
 Don�t you think I could save you
  G            G                    A
 Don�t you think I could save your life


  A      REPEAT 2-TIMES                       A
 ----------------------------------------------------------------------------------------|
 ----------------------------------------------------------------------------------------|
 ----------------------------------------------------------------------------------------|
 14----14-14-14-14-14-14---14---16-14-12-----14-----14-14-14-14-14-14---14---16-14-12----|
 12----12-12-12-12-12-12---12---12-12-12-----12-----12-12-12-12-12-12---12---12-12-12----|
 ----------------------------------------------------------------------------------------|

 G					      D                             C      D
 ----------------------------------------------------------------------------------------|
 ----------------------------------------------------------------------------------------|
 ----------------------------------------------------------------------------------------|
 12----12-12-12-12-12-12---12---14-12-10-------------------------------------------------|
 10----10-10-10-10-10-10---10---10-10-10------12-12-12-12-12-12-12-12-12----10----12-----|
 ---------------------------------------------10-10-10-10-10-10-10-10-10-----8----10-----|


 ----------------------------------------------------------------------------------------|
 ------------------------------------------------------3---------------------------------|
 -2-------------------------------------------------------2---------------------2--------|
 ----2-----------------------5-------------------------------0---------------------2-----|
 -------0-----------------------5-----------------------------------------------------0--|
 ----------------------------------3-----------------------------------------------------|

 ----------------------------------------------------------------------------------------|
 ------------------------------------------------------3---------------------------------|
 -2-------------------------------------------------------2---------------------2--------|
 ----2-----------------------5-------------------------------0---------------------2-----|
 -------0-----------------------5-----------------------------------------------------0--|
 ----------------------------------3-----------------------------------------------------|

 ----------------------------------------------------------------------------------------|
 ----------------------------------------------------------------------------------------|
 -2----------------------------------------------------------------2---------------------|
 ----2-------------------3----------------------5---------------------2------------------|
 -------0-------------------3----------------------5---------------------0---------------|
 ------------------------------1----------------------3----------------------------------|

 ----------------------------------------------------------------------------------------|
 ----------------------------------------------------------------------------------------|
 -2---------------------------------------------5----------------------------------------|
 ----2-------------------3-------------------------5------------------5------------------|
 -------0-------------------3-------------------------3------------------5---------------|
 ------------------------------1--------------------------------------------3------------|

 ----------------------------------------------------------------------------------------|
 ------------------------3---------------------------------------------------------------|
 -2-------------------------2---------------------------------------------2--------------|
 ----2-------------------------0----------------3----------------------------2-----------|
 -------0------------------------------------------3----------------------------0--------|
 -----------------------------------------------------1----------------------------------|

 ----------------------------------------------------------------------------------------|
 ----------------------------------------------------------------------------------------|
 -2-2-2-2-2-2-2-2-2-------------------------------------7-7-7-7-7-7-7-7-7----2-2-2-2-2-2-|
 -2-2-2-2-2-2-2-2-2----------5-5-5-5-5-5-5-5-5----------7-7-7-7-7-7-7-7-7----2-2-2-2-2-2-|
 -0-0-0-0-0-0-0-0-0----------5-5-5-5-5-5-5-5-5----------5-5-5-5-5-5-5-5-5----0-0-0-0-0-0-|
 ----------------------------3-3-3-3-3-3-3-3-3-------------------------------------------|

 ----------------------------------------------------------------------------------------|
 ----------------------------------------------------------------------------------------|
 -2-2-2-2-2-2-2-2-2----------------------------------------------------------2-2-2-2-2-2-|
 -2-2-2-2-2-2-2-2-2----------3-3-3-3-3-3-3-3-3----------5-5-5-5-5-5-5-5-5----2-2-2-2-2-2-|
 -0-0-0-0-0-0-0-0-0----------3-3-3-3-3-3-3-3-3----------5-5-5-5-5-5-5-5-5----0-0-0-0-0-0-|
 ----------------------------1-1-1-1-1-1-1-1-1----------3-3-3-3-3-3-3-3-3----------------|

 ----------------------------------------------------------------------------------------|
 ----------------------------------------------------------------------------------------|
 -2-2-2-2-2-2-2-2-2-------------------------------------5-5-5-5-5-5-5-5-5----------------|
 -2-2-2-2-2-2-2-2-2----------3-3-3-3-3-3-3-3-3----------5-5-5-5-5-5-5-5-5----5-5-5-5-5-5-|
 -0-0-0-0-0-0-0-0-0----------3-3-3-3-3-3-3-3-3----------3-3-3-3-3-3-3-3-3----5-5-5-5-5-5-|
 ----------------------------1-1-1-1-1-1-1-1-1-------------------------------3-3-3-3-3-3-|
 gtr.2
 ----------------------------------------------------------------------------------------|
 ----------------------------------------------------------------------------------------|
 -2---------------------------------------------5----------------------------------------|
 ----2-------------------3-------------------------5------------------5------------------|
 -------0-------------------3-------------------------3------------------5---------------|
 ------------------------------1--------------------------------------------3------------|

 ----------------------------------------------------------------------------------------|
 ----------------------------------------------------------------------------------------|
 -2-2-2-2-2-2-2-2-2----------7-7-7-7-7-7-7-7-7-------------------------------2-2-2-2-2-2-|
 -2-2-2-2-2-2-2-2-2----------7-7-7-7-7-7-7-7-7--------3-3-3-3-3-3-3-3--------2-2-2-2-2-2-|
 -0-0-0-0-0-0-0-0-0----------5-5-5-5-5-5-5-5-5--------3-3-3-3-3-3-3-3--------0-0-0-0-0-0-|
 -----------------------------------------------------1-1-1-1-1-1-1-1--------------------|
 gtr.2
 ----------------------------------------------------------------------------------------|
 ------------------------3---------------------------------------------------------------|
 -2-------------------------2---------------------------------------------2--------------|
 ----2-------------------------0----------------3----------------------------2-----------|
 -------0------------------------------------------3----------------------------0--------|
 -----------------------------------------------------1----------------------------------|

 Backround for solo:1

 ----------------------------------------------------------------------------------------|
 ----------------------------------------------------------------------------------------|
 -2-2-2-2-2-2-2-2-2-------------------------------------7-7-7-7-7-7-7-7-7----2-2-2-2-2-2-|
 -2-2-2-2-2-2-2-2-2----------5-5-5-5-5-5-5-5-5----------7-7-7-7-7-7-7-7-7----2-2-2-2-2-2-|
 -0-0-0-0-0-0-0-0-0----------5-5-5-5-5-5-5-5-5----------5-5-5-5-5-5-5-5-5----0-0-0-0-0-0-|
 ----------------------------3-3-3-3-3-3-3-3-3-------------------------------------------|

 ----------------------------------------------------------------------------------------|
 ----------------------------------------------------------------------------------------|
 -2-2-2-2-2-2-2-2-2-------------------------------------7-7-7-7-7-7-7-7-7----2-2-2-2-2-2-|
 -2-2-2-2-2-2-2-2-2----------5-5-5-5-5-5-5-5-5----------7-7-7-7-7-7-7-7-7----2-2-2-2-2-2-|
 -0-0-0-0-0-0-0-0-0----------5-5-5-5-5-5-5-5-5----------5-5-5-5-5-5-5-5-5----0-0-0-0-0-0-|
 ----------------------------3-3-3-3-3-3-3-3-3-------------------------------------------|

 Backround for solo:2

 ----------------------------------------------------------------------------------------|
 ----------------------------------------------------------------------------------------|
 -2-2-2-2-2-2-2-2-2-------------------------------------7-7-7-7-7---5-5-5-5--2-2-2-2-2-2-|
 -2-2-2-2-2-2-2-2-2----------5-5-5-5-5-5-5-5-5----------7-7-7-7-7---5-5-5-5--2-2-2-2-2-2-|
 -0-0-0-0-0-0-0-0-0----------5-5-5-5-5-5-5-5-5----------5-5-5-5-5---3-3-3-3--0-0-0-0-0-0-|
 ----------------------------3-3-3-3-3-3-3-3-3-------------------------------------------|

 ----------------------------------------------------------------------------------------|
 ----------------------------------------------------------------------------------------|
 -2-2-2-2-2-2-2-2-2-------------------------------------7-7-7-7-7-7-7-7-7----2-2-2-2-2-2-|
 -2-2-2-2-2-2-2-2-2----------5-5-5-5-5-5-5-5-5----------7-7-7-7-7-7-7-7-7----2-2-2-2-2-2-|
 -0-0-0-0-0-0-0-0-0----------5-5-5-5-5-5-5-5-5----------5-5-5-5-5-5-5-5-5----0-0-0-0-0-0-|
 ----------------------------3-3-3-3-3-3-3-3-3-------------------------------------------|
  A         A           A               A
 There�s like a hunger That knocks on the door
  A         A           A               A
 You�ve had a taste of it Still you want more
         G                        D                 A
 You�ve made your mistakes Won�t play it the same again

  A          A          A                A
 You have been warned But still you plunge in
  A           A          A                A
 You play high stakes But there�s nothing to win
         G                    D              A
 You�ve only one life And so many things to learn

  G            G             G
 The angel on one side The Devil the other
        D            A        D       A
 Which path do you take Decisions to make


 Arrive at the crossroads You know where you�re going

 And what if you wait It may be too late

 ----------------------------------------------------------------------------------------|
 ----------------------------------------------------------------------------------------|
 -2-2-2-2-2-2-2-2-2-------------------------------------7-7-7-7-7-7-7-7-7----2-2-2-2-2-2-|
 -2-2-2-2-2-2-2-2-2----------5-5-5-5-5-5-5-5-5----------7-7-7-7-7-7-7-7-7----2-2-2-2-2-2-|
 -0-0-0-0-0-0-0-0-0----------5-5-5-5-5-5-5-5-5----------5-5-5-5-5-5-5-5-5----0-0-0-0-0-0-|
 ----------------------------3-3-3-3-3-3-3-3-3-------------------------------------------|

 ----------------------------------------------------------------------------------------|
 ----------------------------------------------------------------------------------------|
 -2-2-2-2-2-2-2-2-2----------------------------------------------------------2-2-2-2-2-2-|
 -2-2-2-2-2-2-2-2-2----------3-3-3-3-3-3-3-3-3----------5-5-5-5-5-5-5-5-5----2-2-2-2-2-2-|
 -0-0-0-0-0-0-0-0-0----------3-3-3-3-3-3-3-3-3----------5-5-5-5-5-5-5-5-5----0-0-0-0-0-0-|
 ----------------------------1-1-1-1-1-1-1-1-1----------3-3-3-3-3-3-3-3-3----------------|

 ----------------------------------------------------------------------------------------|
 ----------------------------------------------------------------------------------------|
 -2-2-2-2-2-2-2-2-2-------------------------------------5-5-5-5-5-5-5-5-5----------------|
 -2-2-2-2-2-2-2-2-2----------3-3-3-3-3-3-3-3-3----------5-5-5-5-5-5-5-5-5----5-5-5-5-5-5-|
 -0-0-0-0-0-0-0-0-0----------3-3-3-3-3-3-3-3-3----------3-3-3-3-3-3-3-3-3----5-5-5-5-5-5-|
 ----------------------------1-1-1-1-1-1-1-1-1-------------------------------3-3-3-3-3-3-|

 ----------------------------------------------------------------------------------------|
 ----------------------------------------------------------------------------------------|
 -2-2-2-2-2-2-2-2-2----------7-7-7-7-7-7-7-7-7-------------------------------2-2-2-2-2-2-|
 -2-2-2-2-2-2-2-2-2----------7-7-7-7-7-7-7-7-7--------3-3-3-3-3-3-3-3--------2-2-2-2-2-2-|
 -0-0-0-0-0-0-0-0-0----------5-5-5-5-5-5-5-5-5--------3-3-3-3-3-3-3-3--------0-0-0-0-0-0-|
 -----------------------------------------------------1-1-1-1-1-1-1-1--------------------|


  A      REPEAT 2-TIMES                       A
 ----------------------------------------------------------------------------------------|
 ----------------------------------------------------------------------------------------|
 ----------------------------------------------------------------------------------------|
 14----14-14-14-14-14-14---14---16-14-12-----14-----14-14-14-14-14-14---14---16-14-12----|
 12----12-12-12-12-12-12---12---12-12-12-----12-----12-12-12-12-12-12---12---12-12-12----|
 ----------------------------------------------------------------------------------------|

 G					      D                             C      D    A
 ------------------------------------------------------------------------------------------|
 ------------------------------------------------------------------------------------------|
 ------------------------------------------------------------------------------------------|
 12----12-12-12-12-12-12---12---14-12-10---------------------------------------------------|
 10----10-10-10-10-10-10---10---10-10-10------12-12-12-12-12-12-12-12-12----10----12---14--|
 ---------------------------------------------10-10-10-10-10-10-10-10-10-----8----10---12--|

3.LIGHTNING STRIKES TWICE

Intro :
|---------------------------|----------------------------|
|---------------------------|----------------------------|
|4--4-7-4--4-7-9--7-9-11-9-7|4--4-7-4--4-7-9--7-9-11-9-7-|
|---------------------------|----------------------------|
|---------------------------|----------------------------|
|---------------------------|----------------------------|

|---------------------------|---------------------------|
|---------------------------|---------------------------|
|4--4-6-7--4-6-7--4-6-7--6-2|4-6-7--4-6-9--7--4--6------|
|---------------------------|---------------------------|
|---------------------------|---------------------------|
|---------------------------|---------------------------|

|---------------------------|---------------------------|
|---------------------------|---------------------------|
|4--4-6-7--4-6-7--4-6-9--7-2|4--4-6-7--4-6-9-7--9/11--11|
|---------------------------|---------------------------|
|---------------------------|---------------------------|
|---------------------------|---------------------------|


Verse A :
|-----7------3------0------2-|
|----7------3------0------2--|
|---7------3------0------2---|  Play Softly.
|--9------5------2------4----|
|-9------5------2------4-----|
|7------3------0------2------|


Verse B :
|----------------------------------------|
|----------------------------------------|
|----------------------------------------|  Then come crashing
|9-9-9-9-9-5-5-5-5-5-2-2-2-2-2-4-4-4-4-4-|  through with the
|9-9-9-9-9-5-5-5-5-5-2-2-2-2-2-4-4-4-4-4-|  power chords.
|7-7-7-7-7-3-3-3-3-3-0-0-0-0-0-2-2-2-2-2-|



Fill 1 :
|---------------------------|------------------------|
|---------------------------|------------------------|
|4--11-9-7--7-6-4--4-2--0---|4--11-9-7--7-6-4--4-2-0-|
|--------------------------4|-----------------------4|
|---------------------------|------------------------|
|---------------------------|------------------------|

|---------------------------|------------------------|
|---------------------------|------------------------|
|4--11-9-7--7-6-4--4-2--0---|4--11-9-7--7-6-4--4-2-0-|
|------------------------4-2|-----------------------4|
|---------------------------|------------------------|
|---------------------------|------------------------|


Pre-Chorus 1 :
|----------------------------------------|-------------|
|----------------------------------------|-------------|
|----------------------------------------|-------------|
|9-9-7--9--9-9-9-7-9--9--9-9-9-7-9--9--9-|-5-5-5--2-2-2|
|9-9-7--9--9-9-9-7-9--9--9-9-9-7-9--9--9-|-5-5-5--2-2-2|
|7-7-5--7--7-7-7-5-7--7--7-7-7-5-7--7--7-|-3-3-3--0-0-0|


Pre-Chorus 2 :
|-----------------------------|
|-----------------------------|
|-----------------------------|
|7-7-5-7--7--7--5-5-5--2-2-2--|
|7-7-5-7--7--7--5-5-5--2-2-2--|
|5-5-3-5--5--5--3-3-3--0-0-0--|


Pre-Chorus 3 :
|--------------------------|---------------------------|
|--------------------------|---------------------------|
|--------------------------|---------------------------|
|5--5-5-5-5-5--2--2-2-2-2-2|9-9-7--9--9-9-9-7-9--9--9--|
|5--5-5-5-5-5--2--2-2-2-2-2|9-9-7--9--9-9-9-7-9--9--9--|
|3--3-3-3-3-3--0--0-0-0-0-0|7-7-5--7--7-7-7-5-7--7--7--|
Only-----------God----------Knows----------------------|

PRE-CHORUS 4 :
|------------------------------------------------|
|------------------------------------------------|
|------------------------------------------------|
|5--5-5-5-5-5--2--2-2-2-2-2--4--4--4--4--4--4-4--|
|5--5-5-5-5-5--2--2-2-2-2-2--4--4--4--4--4--4-4--|
|3--3-3-3-3-3--0--0-0-0-0-0--2--2--2--2--2--2-2--|
The Whole------Sky-----------Glows---------------|


Chorus :
|-----------------|--------------------|
|-----------------|--------------------|
|12--10--7--5--3p0|12--10--7--5--5h7/12|
|-----------------|--------------------|
|-----------------|--------------------|
|-----------------|--------------------|


Fill 3 :
|-----------------------------|
|-----------------------------|
|6-7-9-7-6-4----6-7-9-7-6-4--4|
|-----------------------------|
|-----------------------------|
|-----------------------------|

Outro :
|-------------------------------------------------|
|-------------------------------------------------|
|-------------------------------------------------|
|9-9-7-9--9--9-9-9-7-9--9--9-9-9-7-9--9--9-9-9-7-9|
|9-9-7-9--9--9-9-9-7-9--9--9-9-9-7-9--9--9-9-9-7-9|
|7-7-5-7--7--7-7-7-5-7--7--7-7-7-5-7--7--7-7-7-5-7|

4.THE CLANSMAN

Intro: (four times)
  Guitar 1: Clean (the (7) is only to be played the three last times)
e|---------------------------------|---------------------------------|
B|---------------------------------|-----------------------5-8-5-----|
G|----7b9--7b9--7-5-7--7-5---------|----7b9--7b9--7-5-7--7-------7-5-|
D|-(7)---------------------7--5----|---------------------------------|
A|---------------------------------|---------------------------------|
E|---------------------------------|---------------------------------|
 |Guitar 2: Clean
e|---------------------------------|---------------------------------|
B|---------------------------------|---------------------------------|
G|---9---9---9---9---7---7---7---7-|-------------------5---5---7---7-|
D|-7---7---7---7---5---5---5---5---|---7---7---7---7-3---3---5---5---|
A|---------------------------------|-5---5---5---5-------------------|
E|---------------------------------|---------------------------------|

e|-----------------------7-8-7---------------------------7-8-7------|
B|--10~---------------10-------10-8-10~---------------10-------10-8-|
G|------------------9-------------------------------9---------------|
D|------------------------------------------------------------------|
A|------------------------------------------------------------------|
E|------------------------------------------------------------------|
 |
e|------------------------------------------------------------------|
B|------------------------------------------------------------------|
G|----9---9---9---9---9---9---9---9---5---5---5---5---5---5---5---5-|
D|--7---7---7---7---7---7---7---7---3---3---3---3---3---3---3---3---|
A|------------------------------------------------------------------|
E|------------------------------------------------------------------|

e|-----------------------7-8-7------8b10----------------8---7-------|
B|--10~---------------10-------10-8-----------------------------8---|
G|------------------9-----------------------------------------------|
D|------------------------------------------------------------------|
A|------------------------------------------------------------------|
E|------------------------------------------------------------------|
 |
e|------------------------------------------------------------------|
B|------------------------------------------------------------------|
G|----7---7---7---7---7---7---7---7---------------------------------|
D|--5---5---5---5---5---5---5---5-----7---7---7---7---7---7---7---7-|
A|----------------------------------5---5---5---5---5---5---5---5---|
E|------------------------------------------------------------------|

e|-----------------------7-8-7---------------------------7-8-7------|
B|--10~---------------10-------10-8-10~---------------10-------10-8-|
G|------------------9-------------------------------9---------------|
D|------------------------------------------------------------------|
A|------------------------------------------------------------------|
E|------------------------------------------------------------------|
 |
e|------------------------------------------------------------------|
B|------------------------------------------------------------------|
G|----5---5---5---5---5---5---5---5---7---7---7---7---7---7---7---7-|
D|--3---3---3---3---3---3---3---3---5---5---5---5---5---5---5---5---|
A|------------------------------------------------------------------|
E|------------------------------------------------------------------|

e|-------------------------------------------------------------------|
B|--10~--------------------------------------------------------------|
G|-------------------------------------------------------------------|
D|-------------------------------------------------------------------|
A|-------------------------------------------------------------------|
E|-------------------------------------------------------------------|
 |
e|-------------------------------------------------------------------|
B|-------------------------------------------------------------------|
G|------9---9---9--------9---9---9-------9---9---9-------9---9---9---|
D|----7---7---7--------7---7---7-------7---7---7-------7---7---7-----|
A|--0----------------0---------------0---------------0---------------|
E|-------------------------------------------------------------------|

Break
Guitar 2: Clean
e|--------------------------------------------------|
B|--------------------------------------------------|
G|---7---9---9---7---9---9---7---9---9---10---9-----|
D|-7---7---7---7---7---7---7---7---7---7----7-------|(twice)
A|--------------------------------------------------|
E|--------------------------------------------------|

e|--------------------------------------------------|
B|--------------------------------------------------|
G|----7---7---7---7---7-----------------------------|
D|--5---5---5---5---5---------7---7---7---7---7-----|
A|--------------------------5---5---5---5---5-------|
E|--------------------------------------------------|

e|--------------------------------------------------|
B|--------------------------------------------------|
G|---7---9---9---7---9---9---7---9---9---10---9-----|
D|-7---7---7---7---7---7---7---7---7---7----7-------|
A|--------------------------------------------------|
E|--------------------------------------------------|

  Guitar 2: Clean
e|--------------------------------------------------|
B|--------------------------------------------------|
G|----7---7---7---7---7-----------------------------|
D|--5---5---5---5---5---------7---7---7---7---7-----|
A|--------------------------5---5---5---5---5-------|
E|--------------------------------------------------|
 |Guitar 1: Clean
e|--10~-----------------8p7-------------------------|
B|--------------------------10~---------------------|
G|--------------------------------------------------|
D|--------------------------------------------------|
A|--------------------------------------------------|
E|--------------------------------------------------|

e|--------------------------------------------------|
B|--------------------------------------------------|
G|----5---5---5---5---5-----------------------------|
D|--3---3---3---3---3---------5---5---5---5---5-----|
A|--------------------------3---3---3---3---3-------|
E|--------------------------------------------------|
 |
e|--10~-----------------8p7-------------------------|
B|--------------------------10~---------------------|
G|--------------------------------------------------|
D|--------------------------------------------------|
A|--------------------------------------------------|
E|--------------------------------------------------|

e|----------------------------------------------------|
B|----------------------------------------------------|
G|----7---7---7---7---7-------------------------------|
D|--5---5---5---5---5---------7---7---7---7---7-------|
A|--------------------------5---5---5---5---5---------|
E|----------------------------------------------------|
 |
e|--10~-----------------8p7-----------------------7---|
B|--------------------------10~-----------------8---8-|
G|----------------------------------------------------|
D|----------------------------------------------------|
A|----------------------------------------------------|
E|----------------------------------------------------|
  Guitar 2:
e|--------------------------------------------------|
B|--------------------------------------------------|
G|----9---9---9---9---9---9---9---9---9---9---9---9-|
D|--7---7---7---7---7---7---7---7---7---7---7---7---|
A|--------------------------------------------------|
E|--------------------------------------------------|
 |Guitar 1:
e|--8h10~-------------------------------------------|
B|--------------------------------------------------|
G|--------------------------------------------------|
D|--------------------------------------------------|
A|--------------------------------------------------|
E|--------------------------------------------------|

Verse:
  Guitar 2: Clean
e|--------------------------------------------------|
B|--------------------------------------------------|
G|---9---9---9---9---9---9---9---9---9---9---9---9--|
D|-7---7---7---7---7---7---7---7---7---7---7---7----|
A|--------------------------------------------------|
E|--------------------------------------------------|

e|--------------------------------------------------|
B|--------------------------------------------------|
G|---7---7---7---7---7------------------------------|
D|-5---5---5---5---5---------7---7---7---7---7------|
A|-------------------------5---5---5---5---5--------|
E|--------------------------------------------------|

e|--------------------------------------------------|
B|--------------------------------------------------|
G|---9---9---9---9---9---9---9---9---9---9---9------|
D|-7---7---7---7---7---7---7---7---7---7---7--------|
A|--------------------------------------------------|
E|--------------------------------------------------|

Chorus:
  Guitar 2: Clean
e|--------------------------------------------------|
B|--------------------------------------------------|
G|----7---7---7---7---7-----------------------------|
D|--5---5---5---5---5---------7---7---7---7---7-----|
A|--------------------------5---5---5---5---5-------|
E|--------------------------------------------------|
 |Guitar 1: Clean
e|--10~-----------------8p7-------------------------|
B|--------------------------10~---------------------|
G|--------------------------------------------------|
D|--------------------------------------------------|
A|--------------------------------------------------|
E|--------------------------------------------------|

e|--------------------------------------------------|
B|--------------------------------------------------|
G|----5---5---5---5---5-----------------------------|
D|--3---3---3---3---3---------5---5---5---5---5-----|
A|--------------------------3---3---3---3---3-------|
E|--------------------------------------------------|
 |
e|--10~-----------------8p7-------------------------|
B|--------------------------10~---------------------|
G|--------------------------------------------------|
D|--------------------------------------------------|
A|--------------------------------------------------|
E|--------------------------------------------------|

e|----------------------------------------------------|
B|----------------------------------------------------|
G|----7---7---7---7---7-------------------------------|
D|--5---5---5---5---5---------7---7---7---7---7-------|
A|--------------------------5---5---5---5---5---------|
E|----------------------------------------------------|
 |
e|--10~-----------------8p7-----------------------7---|
B|--------------------------10~-----------------8---8-|
G|----------------------------------------------------|
D|----------------------------------------------------|
A|----------------------------------------------------|
E|----------------------------------------------------|

e|--------------------------------------------------|
B|--------------------------------------------------|
G|----9---9---9---9---9---9---9---9---9---9---9---9-|
D|--7---7---7---7---7---7---7---7---7---7---7---7---|
A|--------------------------------------------------|
E|--------------------------------------------------|
 |
e|--8h10~------10-----------------------------------|
B|--------------------------------------------------|
G|--------------------------------------------------|
D|--------------------------------------------------|
A|--------------------------------------------------|
E|--------------------------------------------------|

Play Verse again
Play Chorus again

Post Chorus: Distortion
  Freedom...
e|------------------------------------------------------------------------|
B|------------------------------------------------------------------------|
G|-9--9-----5--------9--9-----5---12----9--9-----5-----------------5---7--|
D|-9--9-----5---5----9--9-----5---12----9--9-----5---5----7--7-----5---7--|
A|-7--7-----3---5----7--7-----3---10----7--7-----3---5----7—-7-----3---5--|
E|--------------3------------------------------------3----5--5------------|

Verse 2: Distortion
e|------------------------------------------|
B|------------------------------------------|
G|------------------------------------------|
D|--7--7--7-7-7--7—-7-7-7-—7-—7-7-7--7—-7-7-|
A|--7--7--7-7-7--7—-7-7-7-—7-—7-7-7--7—-7-7-|
E|--5--5--5-5-5--5—-5-5-5--5—-5-5-5--5—-5-5-|
pm        . .       . .       . .       . .
e|---------------------------------------------|
B|---------------------------------------------|
G|---------------------------------------------|
D|-7--7—-7-7-7--7—-7-7-7--7--7--7--7--7--7—-7--|
A|-7--7—-7-7-7--7—-7-7-7--7—-7--7--7--7--7—-7--|
E|-5--5—-5-5-5--5—-5-5—5--5—-5--5--5--5--5--5--|
pm       . .       . .
e|-------------------------------------------------------|
B|--8----------------------------------------------------|
G|--7------7---------------------------------------------|
D|--5------7------7—-7--7-7-7--7--7-7-7--7--7-7-7--7--7--|
A|---------5------7--7--7-7-7--7--7-7-7--7--7-7-7--7—-7--|
E|----------------5--5--5-5-5--5--5-5-5--5—-5-5-5--5--5--|
pm                      . .       . .       . .
Chorus 2: Distortion
e|------------------------------------------|
B|--8-------------6-------------8-----------|
G|--7------7------5------5------7------7----|
D|--5------7------3------5------5------7----|
A|---------5-------------3-------------5----|
E|------------------------------------------|

e|---------------------------------------|
B|---------------------------------------|
G|---------------------------------------|
D|-7--7—-7-7-7--7—-7-7-7--7--7-7-7--7----|
A|-7--7—-7-7-7--7—-7-7-7--7—-7-7-7--7----|
E|-5--5—-5-5-5--5—-5-5—5--5—-5-5-5--5----|
pm       . .       . .       . .

Play Verse 2 again
Play Chorus 2 again
Play Post Chorus again

Interlude 1 (twice)
  Guitar 2: Distortion
e|----7-8--7--------------7-8--7--------------7-8--7-------------8-------|
B|-10---------10-8h10~-10---------10-8h10~-10---------10—-8--10-----10~--|
G|-----------------------------------------------------------------------|
D|-----------------------------------------------------------------------|
A|-----------------------------------------------------------------------|
E|-----------------------------------------------------------------------|
 |Guitar 1: Distortion                                                   2x
e|------------------------------------------------------------------------|
B|------------------------------------------------------------------------|
G|------------------------------------------------------------------------|
D|--7—-7--7-7-7--7--7-7-7--7--7-7-7--7--7-7--3--3--3-3--5---5---5--7------|
A|--7--7--7-7-7--7--7-7-7--7--7-7-7--7--7-7--3--3--3-3--5---5---5—-7------|
E|--5--5--5-5-5--5--5-5-5--5--5-5-5--5--5-5—-1—-1—-1-1--3---3---3—-5------|
pm        . .       . .       . .       . .        . .          .
e|------7-8--7------------8--------|
B|--10---------10—-8--10-----10~---|
G|---------------------------------|
D|---------------------------------|
A|---------------------------------|
E|---------------------------------|
 |
e|---------------------------------|
B|---------------------------------|
G|---------------------------------|
D|--7--7--3--3--3-3--5---5---5--7--|
A|--7--7--3--3--3-3--5---5---5—-7--|
E|--5—-5--1—-1—-1-1--3---3---3—-5--|
pm              . .          .

Interlude 2 (twice)
e|-----------------------------------------------------------------|
B|--------------8~~----------------------10-8-8~-------------------|
G|--9~~----9-11-----5~--7-9-7~~----5~~-------------7~---9-10-9~~---|
D|-----------------------------------------------------------------|
A|-----------------------------------------------------------------|
E|-----------------------------------------------------------------|


Solo 1 - Janick:
e|-17p12----12-------------------------------------------------------|
B|-------15----15p12-15p12----12----------------12-15b17----15p13p12-|
G|-------------------------14----14p12----12-14----------------------|
D|-------------------------------------14----------------------------|
A|-------------------------------------------------------------------|
E|-------------------------------------------------------------------|

e|-------------------------------------------|
B|-15p13p12-12-------------------------------|
G|-------------14p12/11-12--11---------------|
D|------------------------------14---12p.h.--|
A|-------------------------------------------|
E|-------------------------------------------|

e|15b17--15p14p12--12-14-15--17--15—17b19-17--15-14--15-14----------------|
B|---------------15----------------------------------------15—/17—-15--17~|
G|------------------------------------------------------------------------|
D|------------------------------------------------------------------------|
A|------------------------------------------------------------------------|
E|------------------------------------------------------------------------|

e|---------12----12-15b17--15-14-12----12-------------------------------|
B|------------12--------------------15----15-13p12----12----------------|
G|--14b16------------------------------------------14----14p12----12h14-|
D|-------------------------------------------------------------14-------|
A|----------------------------------------------------------------------|
E|----------------------------------------------------------------------|

e|--------------------------------------------------|
B|-12-----------------------------------------------|
G|----14p12----14b16-14b16-14b16-14b16r14~----------|
D|----------14--------------------------------------|
A|--------------------------------------------------|
E|--------------------------------------------------|

e|-----------------------------------------------------------------------|
B|-----------------------------------------------------------------------|
G|14b16-14p12/11-12p11-12p11----11---------------------------------------|
D|---------------------------14----14p12---12------------------12------12|
A|--------------------------------------14----14-13-12----12h14---12h14--|
E|-----------------------------------------------------15----------------|

e|------------------------------------------------------|
B|--------------------------------------15b17~----------|
G|--------------12------14b16-12-----12-----------------|
D|--14--14--14------14------------14--------------------|
A|------------------------------------------------------|
E|------------------------------------------------------|


Rythm Solo 1 (twice)
e|-----------------|-------|----------------|-----|
B|-----------------|-------|----------------|-----|
G|--9------12---5--|-7-----|-5------12---7--|-9---|
D|--9------12---5--|-7-----|-5------12---7--|-9---|
A|--7------10---3--|-5-----|-3------10---5--|-7---|
E|-----------------|-------|----------------|-----|

Solo 2 - Dave:
e|------------------12-14-15-15p14p12-15p14p12------------------------|
B|--15b17~--15b17~-----------------------------15p13p12-15-13-12------|
G|---------------------------------------------------------------14---|
D|--------------------------------------------------------------------|
A|--------------------------------------------------------------------|
E|--------------------------------------------------------------------|

e|----------------------------------------------------------|
B|--12------------------------------------------------------|
G|------14p12-----12-14b16~---12h14p12----12----------------|
D|-------------14----------------------14----14p12----12-14-|
A|-------------------------------------------------14-------|
E|----------------------------------------------------------|

e|-----------------------------------------------------12/14-15-15b17~--|
B|-----------------------------12----12-15-12-15-15b17------------------|
G|-----------12----12-14-12-14----14------------------------------------|
D|--14-12-14----14------------------------------------------------------|
A|----------------------------------------------------------------------|
E|----------------------------------------------------------------------|

e|--15-15-15-14-14-14-15-15-15-14-14-14-15-17--15---14-----------|
B|-------------------------------------------------------15b17~--|
G|---------------------------------------------------------------|
D|---------------------------------------------------------------|
A|---------------------------------------------------------------|
E|---------------------------------------------------------------|

Rythm Solo 2
e|-----------------|---------------|----------------|----------------|
B|-----------------|---------------|----------------|----------------|
G|--9------5----12-|-9------5------|-9------5----12-|-5------5----7--|
D|--9------5----12-|-9------5----5-|-9------5----12-|-5------5----7--|
A|--7------3----10-|-7------3----5-|-7------3----10-|-3------3----5--|
E|-----------------|-------------3-|----------------|----------------|

Play the Break part

Break 2: (twice)
  Guitar 2: Clean
e|---------------------------------------------------|
B|---------------------------------------------------|
G|---------------------------------------------------|
D|----9---9---9---9---9---9---9---9---9---9---9---9--|
A|--7---7---7---7---7---7---7---7---7---7---7---7----|
E|---------------------------------------------------|

e|---------------------------------------------------|
B|---------------------------------------------------|
G|---------------------------------------------------|
D|----9---9---9---9---9---9---9---9---9---9---9---9--|
A|--7---7---7---7---7---7---7---7---7---7---7---7----|
E|---------------------------------------------------|

e|---------------------------------------------------|
B|---------------------------------------------------|
G|---------------------------------------------------|
D|----7---7---7---7---7------------------------------|
A|--5---5---5---5---5---------7---7---7---7---7------|
E|--------------------------5---5---5---5---5--------|

e|---------------------------------------------------|
B|---------------------------------------------------|
G|---------------------------------------------------|
D|----9---9---9---9---9---9---9---9---9---9---9---9--|
A|--7---7---7---7---7---7---7---7---7---7---7---7----|
E|---------------------------------------------------|

End Break 2:
e|---------------------------------------------------|
B|---------------------------------------------------|
G|---------------------------------------------------|
D|----9---9---9---9---9---9---9---9---9---9---9---9--|
A|--7---7---7---7---7---7---7---7---7---7---7---7----|
E|---------------------------------------------------|

e|---------------------------------------------------|
B|---------------------------------------------------|
G|---------------------------------------------------|
D|----9---9---9---9---9---9---9---9---9---9---9---9--|
A|--7---7---7---7---7---7---7---7---7---7---7---7----|
E|---------------------------------------------------|

e|---------------------------------------------------|
B|---------------------------------------------------|
G|---------------------------------------------------|
D|----7---7---7---7---7------------------------------|
A|--5---5---5---5---5---------7---7---7---7---7------|
E|--------------------------5---5---5---5---5--------|

e|---------------------------------------------------|
B|---------------------------------------------------|
G|----5---5---5---5---5-------7---7---7---7---7------|
D|--3---3---3---3---3-------5---5---5---5---5--------|
A|---------------------------------------------------|
E|---------------------------------------------------|

e|---------------------------------------------------|
B|---------------------------------------------------|
G|---------------------------------------------------|
D|----9---9---9---9---9---9---9---9---9---9---9---9--|
A|--7---7---7---7---7---7---7---7---7---7---7---7----|
E|---------------------------------------------------|

Break 3: Distortion (twice)
e|------------------------------------------|
B|------------------------------------------|
G|------------------------------------------|
D|--7--7--7-7-7--7—-7-7-7-—7-—7-7-7--7—-7-7-|
A|--7--7--7-7-7--7—-7-7-7-—7-—7-7-7--7—-7-7-|
E|--5--5--5-5-5--5—-5-5-5--5—-5-5-5--5—-5-5-|
pm      . .         . .       . .       . .
e|------------------------------------------|
B|------------------------------------------|
G|------------------------------------------|
D|--7--7--7-7-7--7—-7-7-7-—7-—7-7-7--7—-7-7-|
A|--7--7--7-7-7--7—-7-7-7-—7-—7-7-7--7—-7-7-|
E|--5--5--5-5-5--5—-5-5-5--5—-5-5-5--5—-5-5-|
pm      . .         . .       . .       . .
e|-------------------------------------------------------|
B|--8----------------------------------------------------|
G|--7------7---------------------------------------------|
D|--5------7------7—-7--7-7-7--7--7-7-7--7--7-7-7--7--7--|
A|---------5------7--7--7-7-7--7--7-7-7--7--7-7-7--7—-7--|
E|----------------5--5--5-5-5--5--5-5-5--5—-5-5-5--5--5--|
pm                      . .       . .       . .

End Break 3:
e|------------------------------------------|
B|------------------------------------------|
G|------------------------------------------|
D|--7--7--7-7-7--7—-7-7-7-—7-—7-7-7--7—-7-7-|
A|--7--7--7-7-7--7—-7-7-7-—7-—7-7-7--7—-7-7-|
E|--5--5--5-5-5--5—-5-5-5--5—-5-5-5--5—-5-5-|
pm      . .         . .       . .       . .
e|------------------------------------------|
B|------------------------------------------|
G|------------------------------------------|
D|--7--7--7-7-7--7—-7-7-7-—7-—7-7-7--7—-7-7-|
A|--7--7--7-7-7--7—-7-7-7-—7-—7-7-7--7—-7-7-|
E|--5--5--5-5-5--5—-5-5-5--5—-5-5-5--5—-5-5-|
pm      . .         . .       . .       . .
e|---------------------------------------------------------------------|
B|--8-------------6------8---------------------------------------------|
G|--7------7------5------7---------------------------------------------|
D|--5------7------3------5------7—-7--7-7-7--7--7-7-7--7--7-7-7--7--7--|
A|---------5--------------------7--7--7-7-7--7--7-7-7--7--7-7-7--7—-7--|
E|------------------------------5--5--5-5-5--5--5-5-5--5—-5-5-5--5--5--|
pm                                    . .       . .       . .

Interlude 3: Distortion (four times)
e|-----------------------------------------------------------------------|
B|--------------------------------12~------------------------------------|
G|-9-11-12-11-9-9~---9-11-12-11-9------9-11-12-11-9-9~---9-11-12-11-9-7~-|
D|-----------------------------------------------------------------------|
A|-----------------------------------------------------------------------|
E|-----------------------------------------------------------------------|

Guitar 2 play Post Chorus again
Guitar 1 plays this four times:
e|-12-0-0-0-7-0-0-0-10-0-0-0-5-0-0-0-7-0-0-0-3-0-0-0-5-0-0-0-2-3-2-0-|
B|-------------------------------------------------------------------|
G|-------------------------------------------------------------------|
D|-------------------------------------------------------------------|
A|-------------------------------------------------------------------|
E|-------------------------------------------------------------------|

Play Verse 2 again
Play Chorus 2 twice
Play Post Chorus last time on Guitar one it goes:
e|-12-0-0-0-7-0-0-0-10-0-0-0-5-0-0-0-7-0-0-0-3-0-0-0-5-----|

5.WHEN TWO WORLD'S COLLIDE

INTRO (0:00 ->0:45)

-------0---------0---|--------0-----------0---|---------0------------0--|-----|
-------0---------0---|--------0-----------0---|---------0------------0--|-----|
-----4-4-------4-4---|------4-4---------4-4---|-------4-4----------4-4--|-----|
---4---------4-------|----4-----------4-------|-----4------------4------|-----|
-2-------------------|--2---------------------|---2---------------------|-----|
-----------3---------|--------------3---------|----------------3--------|-----|


-------0---------0---|--------0-----------0---|---------0-----------0---|-----|
-------0---------0---|--------0-----------0---|---------0-----------0---|-----|
-----4-4-------4-4---|------4-4---------4-4---|-------4-4---------4-4---|-----|
---4---------4-------|----4-----------4-------|-----4-----------4-------|-----|
-2-------------------|--------------2---------|---------------2---------|-----|
-----------3---------|--0---------------------|---0---------------------|-----|


PART A (0:46->1:12) (USE GALLOP RYTHM) (PLAY IT 8 TIMES)

------------------|
------------------|
-9--7-7-7--7-7-7--|
-9--7-7-7--7-7-7--|
-7--5-5-5--5-5-5--|


PRE-CHORUS

------------------|
------------------|
-7--9--7--9--7--9-|
-7--9--7--9--7--9-|
-5--7--5--7--5--7-|
------------------|

CHORUS (1:13->1:27) (TO BE PLAYED 2 TIMES)

-|--------------------------------------------|--------------|
-|--------------------------------------------|--------------|
-|--------------------------------------------|--------------|
-|-4--6--7------7--6--4--2--4---6--7---11--9--|--------------|
-|-2--4--5--5---5--4--2--0--2---4--5----9--7--|--------------|
-|----------3---------------------------------|--------------|


PART B (1:27->1:53) WITH GUITAR ONE (TO BE PLAYED 2 TIMES)

-------0--------0-----------0-----------0---|---------------------------------|
-------0--------0-----------0-----------0---|---------------------------------|
-----4-4------4-4---------4-4---------4-4---|---------------------------------|
---4--------4-----------4-----------4-------|---------------------------------|
-2--------------------------------2---------|---------------------------------|
----------3-----------0---------------------|---------------------------------|


MEANTIME, GUITAR TWO PLAYS THIS GALLOP RYTHM SEVERAL TIMES :

-----------------------------|------------------------------------------------|
-----------------------------|------------------------------------------------|
-4-4-4-----------------------|------------------------------------------------|
-4-4-4--5-5-5--2-2-2--4-4-4--|------------------------------------------------|
-2-2-2--5-5-5--2-2-2--4-4-4--|------------------------------------------------|
--------3-3-3--0-0-0--2-2-2--|------------------------------------------------|

INTERLUDE I (1:54->2:22) (PLAY THIS TWO TIMES)

-------------------|--------------------|--------------------|------------------|
-7-7-7-8-10-8-7----|--7-7-7-8-10-8-7----|--7-7-7-9-10-8-7----|------------------|
----------------7--|-----------------7--|-----------------7--|------------------|
-------------------|--------------------|--------------------|------------------|
-------------------|--------------------|--------------------|------------------|
-------------------|--------------------|--------------------|------------------|


-------------------|----------------------------------------------------------|
-7-7-7-8-10-8-7----|----------------------------------------------------------|
----------------9--|----------------------------------------------------------|
-------------------|----------------------------------------------------------|
-------------------|----------------------------------------------------------|
-------------------|----------------------------------------------------------|

INTERLUDE II (2:23->2:50) (PLAY IT TWO TIMES)

-------------------|-------------------|--------------------|-----------------|
-------------------|-------------------|--------------------|-----------------|
---11-9-7-6---6-7--|----7-6-4-2---2-4--|----4-2-0-------0---|-----------------|
-9----------9------|--5---------5------|--2-------4-2-4-----|-----------------|
-------------------|-------------------|--------------------|-----------------|
-------------------|-------------------|--------------------|-----------------|


-------------------|----------------------------------------------------------|
-------------------|----------------------------------------------------------|
---11-9-7-6---6-7--|----------------------------------------------------------|
-9----------9------|----------------------------------------------------------|
-------------------|----------------------------------------------------------|
-------------------|----------------------------------------------------------|


PRE-SOLO RYTHM (2:51->3:03)

----------------------------------------|-------------------------------------|
----------------------------------------|-------------------------------------|
--9--12--5--2--5--7--9--12--5--7-----2--|-------------------------------------|
--9--12--5--2--5--7--9--12--5--7--5--2--|-------------------------------------|
--7--10--3--0--3--5--7--10--3--5--5--0--|-------------------------------------|
----------------------------------3-----|-------------------------------------|

DURING THE SOLO, PLAY THIS PRE-SOLO PART 3 TIMES (3:04->3:45)


PRE-CHORUS (3:46->3:56) (TO BE PLAYED 3 TIMES)

--------------------|---------------------------------------------------------|
--------------------|---------------------------------------------------------|
--7--9--7--9--7--9--|---------------------------------------------------------|
--7--9--7--9--7--9--|---------------------------------------------------------|
--5--7--5--7--5--7--|---------------------------------------------------------|
--------------------|---------------------------------------------------------|


CHORUS (PLAY IT TWO TIMES) (3:56->4:10)

-|--------------------------------------------|--------------|
-|--------------------------------------------|--------------|
-|--------------------------------------------|--------------|
-|-4--6--7------7--6--4--2--4---6--7---11--9--|--------------|
-|-2--4--5--5---5--4--2--0--2---4--5----9--7--|--------------|
-|----------3---------------------------------|--------------|
                                           I->DON'T PLAY THIS CHORD
                                              THE SECOND TIME

PART B WITH GUITAR ONE (TO BE PLAYED 2 TIMES) (4:11->4:32)

-------0--------0-----------0-----------0---|---------------------------------|
-------0--------0-----------0-----------0---|---------------------------------|
-----4-4------4-4---------4-4---------4-4---|---------------------------------|
---4--------4-----------4-----------4-------|---------------------------------|
-2--------------------------------2---------|---------------------------------|
----------3-----------0---------------------|---------------------------------|


MEANTIME, GUITAR TWO PLAYS :

-----------------------------|------------------------------------------------|
-----------------------------|------------------------------------------------|
-4-4-4-----------------------|------------------------------------------------|
-4-4-4--5-5-5--2-2-2--4-4-4--|------------------------------------------------|
-2-2-2--5-5-5--2-2-2--4-4-4--|------------------------------------------------|
--------3-3-3--0-0-0--2-2-2--|------------------------------------------------|

INTERLUDE III (PLAY IT TWICE) (4:33->4:58)

-------------------|-----------------|----------------|-----------------------|
--------7----------|------7----------|------7---------|-----------------------|
----7-9---9-7-9----|--7-9---9-7-9----|--7-9---9-7-9-6-|-----------------------|
--9-------------9--|--------------9--|----------------|-----------------------|
-------------------|-----------------|----------------|-----------------------|
-------------------|-----------------|----------------|-----------------------|

INTERLUDE IV (4:59->5:25)

A) PLAY THIS 4 TIMES        B) PLAY THIS ONE TIME
-------------------------|-------------------------|--------------------------|
-------------------------|-------------------------|--------------------------|
----------9-7-7/9\7\6-7--|-----------9-7-7/9\7\6-6-|--------------------------|
--9-11-12----------------|---9-11-12---------------|--------------------------|
-------------------------|-------------------------|--------------------------|
-------------------------|-------------------------|--------------------------|

C) FINISH WITH THIS RIFF AFTER HAVING PLAYING PART A) AGAIN
--------------------------|---------------------------------------------------|
--------------------------|---------------------------------------------------|
----------9-11/12\11\9/11-|---------------------------------------------------|
--9-11-12-----------------|---------------------------------------------------|
--------------------------|---------------------------------------------------|
--------------------------|---------------------------------------------------|


GALLOP RYTHM (5:26->6:13)

-----------------------------|------------------------------------------------|
-----------------------------|------------------------------------------------|
-4-4-4---------4-4-4--6-6-6--|------------------------------------------------|
-4-4-4--5-5-5--4-4-4--6-6-6--|------------------------------------------------|
-2-2-2--5-5-5--2-2-2--4-4-4--|------------------------------------------------|
--------3-3-3----------------|------------------------------------------------|


THIS PART CAN BE PLAYED OVER THE RYTHM ABOVE

-------0--------0-----------0-----------0---|---------------------------------|
-------0--------0-----------0-----------0---|---------------------------------|
-----4-4------4-4---------4-4---------4-4---|---------------------------------|
---4--------4-----------4-----------4-------|---------------------------------|
-2--------------------------------2---------|---------------------------------|
----------3-----------0---------------------|---------------------------------|

6.THE EDUCATED FOOL

|------------------------------------------------------------------------------|
|------------------------------------------------------------------------------|
|------------------------------------------------------------------------------|
|------9--10--9-----9--10--9--10--9/12--10  9----------------------------------|
|-(7)-----------(7)----------------------------12------------------------------|
|--0-------------0-------------------------------------------------------------|


|------------------------------------------------------------------------------|
|------------------------------------------------------------------------------|
|------11--12--14--12--11--12~~------11--12--14--12--11--12--14^14--12--14-----|
|--14----------------------------14--------------------------------------------|
|------------------------------------------------------------------------------|
|------------------------------------------------------------------------------|

                ___________ ________
    E5V  C5     |1.  G5  A5 |2. G5
|---------------|-----------|--------------------------------------------------|
|---------------|-----------|--------------------------------------------------|
|---9----5------|-----------|--------------------------------------------------|
|---9----5------|----5---7--|---5----------------------------------------------|
|---7----3------|----5---7--|---5----------------------------------------------|
|---------------|----3---5--|---3----------------------------------------------|

ARRANGED FOR TWO GUITARS (2 OCTAVES):

|------------------------------------------------------------------------------|
|------------------------------------------------------------------------------|
|------16------14------12--12--12--14--12--11----------------------------------|
|--14------14------14----------------------------------------------------------|
|------14------12------10--10--10--12--10--9-----------------------------------|
|--12------12------12----------------------------------------------------------|

WITH DISTORTION:
              _______ ________
   E5V    G5  |1. G5  |2.  A5     |   E5V  G5  C5  D5  E5V  E5V G5V  C5  D5
|-------------|-------|-----------|--------------------------------------------|
|-------------|-------|-----------|--------------------------------------------|
|---9---------|-------|-----------|----9-------5---7----9----9---12---5---7----|
|---9------5--|---5---|----7------|----9---5---5---7----9----9---12---5---7----|
|---7------5--|---5---|----7------|----7---5---3---5----7----7---10---3---5----|
|----------3--|---3---|----5------|--------3-----------------------------------|

|------------------------------------------------------|----------------------|
|------------------------------------------------------|----------------------|
|------------------------------7-----------------------|----------------------|
|-----9--10--9~~-----9--10--9-----10--9--10--------7  -|----------------------|
|--7--------------7--------------------------10~~------|----------------------|
|------------------------------------------------------|----------------------|

|-------------------------------------------|----------------------------------|
|-------------------------------------------|----------------------------------|
|------11--12------11--11--12--14--12--11---|----------------------------------|
|--14----------14---------------------------|----------------------------------|
|-------------------------------------------|----------------------------------|
|-------------------------------------------|----------------------------------|

SOLO RHYTHM:

   E5V  G5V  C5/G5V
|------------------------------------------------------------------------------|
|------------------------------------------------------------------------------|
|---9---------5/10-------------------------------------------------------------|
|---9----5----5/12-------------------------------------------------------------|
|---7----5----3/12-------------------------------------------------------------|
|--------3---------------------------------------------------------------------|


|-----------------------------------------------------------|-------------------|
|-----------------------------------------------------------|-------------------|
|-----------------------------------------7-----------------|-------------------|
|-----9--10--9--9-----9--10--9--9--10--9-----10--9--7~~-----|-------------------|
|--7---------------7----------------------------------------|-------------------|
|-----------------------------------------------------------|-------------------|

7.DON'T LOOK TO THE EYES OF A STRANGER

Intro-Main Riff

Guitar 2(Janick):
    Ab5                    E5                    Eb5
e|--------------------------------------------------------------------------|
B|--------------------------------------------------------------------------|
G|-------------13------------------9--------------------8-------------------|
D|---------13------13-----------9-----9--------------8-----8----------------|
A|-----11--------------------7-------------------6--------------------------|
E|--------------------------------------------------------------------------|
PM............................................................

   B5
e|---------------------|
B|---------------------|
G|---------4-----------|
D|------4-----4--------|
A|---2-----------------|
E|---------------------|
 PM..............

Guitar 1(Dave)-enters later on

e|---------------------------------------------------------------------|
B|---------------------------------------------------------------------|
G|-----------------------------------------------6--8--6---------------|
D|--6--8--9--8--9--8--9--8--6-----6--8--9--8--9-----------9--8---------|
A|-----------------------------9---------------------------------------|
E|---------------------------------------------------------------------|

Verse 1
Guitar 1:

e|--------------------------------------------|
B|-------9-------9-------7--------------------|
G|----8-------8-------8-----9-----------------|
D|-6-------6-------6--------------------------|
A|--------------------------------------------|
E|--------------------------------------------|

Guitar 2 plays along with Guitar 1:

              Ab5           Gb5    E5
e|-------------------------------------------------|
B|-------------------------------------------------|
G|------------13------------11-----9---------------|
D|------------13(x8)--------11-----9---------------|
A|------------11------------9------7---------------|
E|-------------------------------------------------|
           PM.....

These chords below are played by guitar 2 after a while. Listen and you'll understand

     B5    C#5
e|--------------------------------|
B|--------------------------------|
G|---4-4----6---------------------|
D|---4-4----6---------------------|
A|---2-2----4---------------------|
E|--------------------------------|

Verse 2(the calm part)

Guitar 1:
Part1                                        | Part 2
_____________________________________________|______________
e|-------------------------------------------|-------------- |
B|-------------------------------------------|-------------- |
G|---------------------------(---------)-----|-------------- |
D|--9p8------9p8-----9p8-----(-9p8-----)-----|-9/11--9/8---- |
A|-------9--------9-------9--(------9--)-----|-----------9-- |
E|---------------------------(---------)-----|-------------- |
The parentheses part is only played the 4th time, when Part is not played

Verse 3

Note: The 3 phrases below are played one by one for a differnt number of times each

Guitar 1:
e|--------------------------------|
B|--------------------------------|
G|-----------------------4--------|
D|--6p4h6--4h6p4h6---4------------|
A|--------------------------------|
E|--------------------------------|


Then this changes into this:
e|-------------------------------------------|
B|-------------------------------------------|
G|---8p6h8--8p6h8--8p6h8/9--8p6--------------|
D|---------------------------------6/4-6-----|
A|-------------------------------------------|
E|-------------------------------------------|

Finally
e|-------------------------------|
B|-------------------------------|
G|------------------4------------|
D|--6p4h6--4h6p4h6------6--------|
A|-------------------------------|
E|-------------------------------|

8.COMO ESTAIS AMIGOS

Intro
|------1-0------1-0------1-0------1-0------|
|------3--------3--------3--------3--------|
|---2---------2--------2--------2----------|
|-0---------0--------0--------0------------|
|------------------------------------------|
|------------------------------------------|

Verse (x4)
|-----1-0-----1--------1-0-----0-1-0-----|
|-----3-------3--0-----3-------------3---|
|---2-------2--------2-------2---------2-|
|-0-------3------------------------------|
|------------------3-------2-------------|
|----------------------------------------|

Pre Chorus
|-------------------------0-------------------------------0-------|
|---------3-------------------------------3-----------------------|
|-----0-------0-------0-------0-------0-------0-------0-------0---|
|---3---3---3---3---3---3---3---3---3---3---3---3---3---3---3---3-|
|-1---------------3---------------1---------------3---------------|
|-----------------------------------------------------------------|

Chorus
|-----1-0-----1-0-------------------------------------1-0-----1-0-|
|-----3-------3---------------------------------------3-------3---|
|---2-------2---------5-------2-------3-------------2-------2-----|
|-0-------3---------5---5---2---2---3---3---3-5-3-0-------0-------|
|-----------------3-------0-------1-------3-----------------------|
|-----------------------------------------------------------------|

|-----1-0-----1-0---------------------------------|
|-----3-------3-----------------------------------|
|---2-------2---------5-------2-------3-----------|
|-0-------3---------5---5---2---2---3---3---3-5-3-|
|-----------------3-------0-------1-------3-------|
|-------------------------------------------------|

|-------------------------0-------------------------------0-------|
|-----3-------3-------3-----3---------3-------3-------3-----3-----|
|---2---2---2---2---2---2-----2-----2---2---2---2---2---2-----2---|
|-0-----------------------------0-0-----------------------------0-|
|---------3-------1-----------------------3-------1---------------|
|-----------------------------------------------------------------|

|---------------------1-0-----1-0-|
|-------1-------1-----3-------3---|
|-----2-------2-----2-------2-----|
|---0-------0-----0-------0-------|
|-3-------0-----------------------|
|---------------------------------|

Verse (x4)
|-----1-0-----1--------1-0-----0-1-0-----|
|-----3-------3--0-----3-------------3---|
|---2-------2--------2-------2---------2-|
|-0-------3------------------------------|
|------------------3-------2-------------|
|----------------------------------------|

Pre Chorus
|-----------------------------------------------------------------|
|-----------------------------------------------------------------|
|-3-3-3-3-3-3-3-3-5-5-5-5-5-5-5-5-3-3-3-3-3-3-3-3-5-5-5-5-5-5-5-5-|
|-3-3-3-3-3-3-3-3-5-5-5-5-5-5-5-5-3-3-3-3-3-3-3-3-5-5-5-5-5-5-5-5-|
|-1-1-1-1-1-1-1-1-3-3-3-3-3-3-3-3-1-1-1-1-1-1-1-1-3-3-3-3-3-3-3-3-|
|-----------------------------------------------------------------|

Chorus
|-----------------------------------------------------------------|-----|
|-----------------------------------------------------------------| ----|
|-7-7-7-7-3-3-3-3-5-5-5-5-2-2-2-2-3-3-3-3-5-5-5-5-7-7-7-7-7-7-7-7-| ----| x3
|-7-7-7-7-3-3-3-3-5-5-5-5-2-2-2-2-3-3-3-3-5-5-5-5-7-7-7-7-7-7-7-7-|  ---|
|-5-5-5-5-1-1-1-1-3-3-3-3-0-0-0-0-1-1-1-1-3-3-3-3-5-5-5-5-5-5-5-5-| ----|
|-----------------------------------------------------------------|-----|

              x3                                x1
|---------------------------------|---------------------------------|
|---------------------------------|---------------------------------|
|-7-7-7-7-5-5-5-5-3-3-3-3-3-3-3-3-|-5-5-5-5-2-2-2-2-7-7-7-7-7-7-7-7-|
|-7-7-7-7-5-5-5-5-3-3-3-3-3-3-3-3-|-5-5-5-5-2-2-2-2-7-7-7-7-7-7-7-7-|
|-5-5-5-5-3-3-3-3-1-1-1-1-1-1-1-1-|-3-3-3-3-0-0-0-0-5-5-5-5-5-5-5-5-|
|---------------------------------|---------------------------------|

Solo
|-----------------1-0~-1-0------2----2--------1-0~-1-0-----3~-|----|
|--------------------------2-3~---3~---3-1-------------3-1----| ---|
|---------0-2-3~---------------------------3~-----------------| ---|x2
|-0-0-2-3-----------------------------------------------------|  --|
|-------------------------------------------------------------| ---|
|-------------------------------------------------------------|----|

|------0-1-0-1-3-5~-3~-|-13-12-10----10-------------|-13-12-10-12-13-12-10-12-13/15-|
|-3~-3-----------------|----------13----13-10-------|-------------------------------|
|----------------------|----------------------12----|-------------------------------|
|----------------------|-------------------------10~|-------------------------------|
|----------------------|----------------------------|-------------------------------|
|----------------------|----------------------------|-------------------------------|

|-17-15-13-12-13-12---------15/17-15-13-12-13-12-----------|
|-------------------13-15~-----------------------15-13-15~-|
|----------------------------------------------------------|
|----------------------------------------------------------|
|----------------------------------------------------------|
|----------------------------------------------------------|

|-----------------1-0~-1-0------2----2--------1-0~-1-0-----3~-|----|
|--------------------------2-3~---3~---3-1-------------3-1----| ---|
|---------0-2-3~---------------------------3~-----------------| ---|x2
|-0-0-2-3-----------------------------------------------------|  --|
|-------------------------------------------------------------| ---|
|-------------------------------------------------------------|----|


Pre Chorus
|-----------------------------------------------------------------|-----|
|-----------------------------------------------------------------| ----|
|-3-3-3-3-3-3-3-3-5-5-5-5-5-5-5-5-3-3-3-3-3-3-3-3-5-5-5-5-5-5-5-5-| ----| x2
|-3-3-3-3-3-3-3-3-5-5-5-5-5-5-5-5-3-3-3-3-3-3-3-3-5-5-5-5-5-5-5-5-|  ---|
|-1-1-1-1-1-1-1-1-3-3-3-3-3-3-3-3-1-1-1-1-1-1-1-1-3-3-3-3-3-3-3-3-| ----|
|-----------------------------------------------------------------|-----|

Chorus
|-----------------------------------------------------------------|-----|
|-----------------------------------------------------------------| ----|
|-7-7-7-7-3-3-3-3-5-5-5-5-2-2-2-2-3-3-3-3-5-5-5-5-7-7-7-7-7-7-7-7-| ----| x4
|-7-7-7-7-3-3-3-3-5-5-5-5-2-2-2-2-3-3-3-3-5-5-5-5-7-7-7-7-7-7-7-7-|  ---|
|-5-5-5-5-1-1-1-1-3-3-3-3-0-0-0-0-1-1-1-1-3-3-3-3-5-5-5-5-5-5-5-5-| ----|
|-----------------------------------------------------------------|-----|

|--------------------------------------|
|--------------------------------------|
|-7-7-7-5-5-5-3-3-3--7-7-7-5-5-5-3-3-3-|
|-7-7-7-5-5-5-3-3-3--7-7-7-5-5-5-3-3-3-|
|-5-5-5-3-3-3-1-1-1--5-5-5-3-3-3-1-1-1-|
|--------------------------------------|
Outro Guitar 1
|-------------0-----------------------------0-----|
|---------3-----3-------3-------3-------3-----3---|
|-7-5-3-2---2-----2-7-2---2-5-2---2-3-2---2-----2-|
|-7-5-3-------------7-------5-------3-------------|
|-5-3-1-------------5-------3-------1-------------|
|-------------------------------------------------|

|-------------------------0------------------------------1--10~~~-|
|-----3-------3-------3-----3----------1-------1-------3----------|
|-7-2---2-5-2---2-3-2---2-----2--5---2---3---2---7---2------------|
|-7-------5-------3--------------5-0-----3-0-----7-0--------------|
|-5-------3-------1--------------3-------1-------5----------------|
|-----------------------------------------------------------------|
comments
We did not receive enough feedback on this tab! Please rate:
print report bad tab
1 2 3 4 5
2 comments total.
0 reply
jugulator wrote on January 20 2007, 08:28 am

shit shit shit

0 reply
apollonios wrote on May 7 2011, 11:49 am

this is wrong....

I want to post or [tab]
guest
You may want to rate the tab now too:
select rating
Please do not post tabs as comments. Select "correction" instead!