Oops, an error
Loading. Please wait.

Xfactor Tab

ver1
ver1

Album

Whole song

More versions @911Tabs.com
5,845 views 3 this week
3 commentsread comments
1 2 3 4 5
accurate
x 3
Autoscroll
+/-
esc
set tempo
stop
Contributor
Hey! There's an official Ultimate Guitar app which is ideal
for learning songs when you're away from computer. Get the app
WARNING: You are trying to view
                                    content from Ultimate-Guitar.com
                                    in an unauthorized application,
                                    which is prohibited.

                                    Please use an official Ultimate
                                    Guitar Tabs application for iPhone,
                                    iPad or Android to access legitimate
                                    chords, guitar, bass, and drum tabs
                                    from Ultimate-Guitar.com database.

                                    Type "ultimate guitar tabs" in Apple
                                    App Store's or Android Market's
                                    search to find the application.
Band- Iron Maiden
Album- X Factor

1.SIGN OF THE CROSS

(X2)
 e|-----------------------------------------------------------------------\
 B|-----------------------------------------------------------------------\
 G|-----------------------------------------------------------------------\
 D|-----------------------------------------------------------------------\
 A|----0-2-3--2--0-2-3-2------0-2-3---2-3-5--3--2------0-2-3--2--0-2-3-2--\
 E|-0----------------------0------------------------0---------------------\

   [ending 1]              [ending 2]
 -\----------------------|----------------------|
 -\----------------------|----------------------|
 -\----------------------|----------------------|
 -\----------------------|----------------------|
 -\----------------------|----------------------|
 -\-0--0-2-3--2-3--2-3---|-0--0-2-3--2-3--2-0---|


 01:55 - 02:47 = INTRO 2 (occassional chords)

 e|---|
 B|---|
 G|---|
 D|---|
 A|---|
 E|---|


 02:47 - 03:26 = VERSE 1 (thumping chords, 4 a bar, hit;miss;hit;hit)

 e|---|
 B|---|
 G|---|
 D|---|
 A|---|
 E|---|


 03:26 - 03:44 = VERSE 2 (similar to Verse 1, but with LEAD 1)

   [LEAD 1]
 e|------------------------------------|
 B|-5--5-7-8-7-----0---5--5-7-8-7------|
 G|-------------7------------------7---|
 D|------------------------------------|
 A|------------------------------------|
 E|------------------------------------|


 03:44 - 04:04 = CHORUS (chords)

 e|---|
 B|---|
 G|---|
 D|---|
 A|---|
 E|---|


 04:04 - 04:22 = VERSE 2


 04:22 - 04:42 = CHORUS


 04:42 - 05:01 = RIFF 1 (2 guitars + bass, guitar 1 top;guitar 2 bottom)

   (X2)
 e|----------------------------------------------------------------------------\
 B|---12-12-12--10-12-12-12----12-12-12--10-12-12-12----12-12-12--10-12-12-12--\
 G|-9------------------------9------------------------9------------------------\
 D|----9--9--9---7--9--9--9-----9--9--9---7--9--9--9-----9--9--9---7--9--9--9--\
 A|-7------------------------7------------------------7------------------------\
 E|----------------------------------------------------------------------------\

 -\------------------------------|
 -\-13-13--12-12--10-10--12-12---|
 -\------------------------------|
 -\-10-10---9--9---7--7---9--9---|
 -\------------------------------|
 -\------------------------------|

   (X2)
 e|----------------------------------------------------------------------------\
 B|---10-10-10---8-10-10-10----10-10-10---8-10-10-10----10-10-10---8-10-10-10--\
 G|-7------------------------7------------------------7------------------------\
 D|----7--7--7---5--7--7--7-----7--7--7---5--7--7--7-----7--7--7---5--7--7--7--\
 A|-5------------------------5------------------------5------------------------\
 E|----------------------------------------------------------------------------\

 -\------------------------------|
 -\-11-11--10-10---8--8--10-10---|
 -\------------------------------|
 -\--8--8---7--7---5--5---7--7---|
 -\------------------------------|
 -\------------------------------|


 05:01 - 05:30 = RIFF 2 (chords, by the threes)

 e|---|
 B|---|
 G|---|
 D|---|
 A|---|
 E|---|


 05:30 - 06:06 = RIFF 3 (background chanting)

   [part 1]             X2 [part 2]
 e|-----------------------|-----------------------|----------|
 B|-----------------------|-----------------------|----------|
 G|-----------------------|-----------------------|- PART 1 -|
 D|--9--9-8----9--9--8-7--|--7--7-6----7--7--6-5--|-  (X1)  -|
 A|-7--7------7--7--7-----|-5--5------5--5--5-----|----------|
 E|-----------------------|-----------------------|----------|


 06:06 - 07:08 = RIFF 4

   [part 1]                                               [part 2]
 e|-----------------------------------------------------|-----------------------------\
 B|-----------------------------------------------------|-----------------------------\
 G|-----------------------------------------------------|-----------------------------\
 D|--9-9-9-8-------------9-9-9-8---7--------------------|--9-9-9-8--------------------\
 A|-7----------7---7----7--------7-----7---7---7---7----|-7----------7---7---7---7----\
 E|----------000-000-00--------------000-000-000-000-00-|----------000-000-000-000-00-\

                                     [part 3]
 -\---------------------------------|-----------------------------------------------------|-\
 -\---------------------------------|-----------------------------------------------------|-\
 -\---------------------------------|-----------------------------------------------------|-\
 -\--9-9-9-8---7--------------------|--7-7-7-6-------------7-7-7-6---5--------------------|-\
 -\-7--------7-----7---7---7---7----|-5----------7---7----5--------5-----7---7---7---7----|-\
 -\--------------000-000-000-000-00-|----------000-000-00--------------000-000-000-000-00-|-\

 -\------------|
 -\------------|
 -\-- PART 2 --|
 -\--  (X1)  --|
 -\------------|
 -\------------|


 07:08 - 07:25 = RIFF 5

   [part 1]            (X2) [part 2]
 e|------------------------|-------------------------------------------------------|
 B|------------------------|-------------------------------------------------------|
 G|------------------------|-------------------------------------------------------|
 D|--9-----10-----7-----9--|--7-----8-----5-----7---------7-----8-----5-----7------|
 A|-7-7-7-7--7-7-7-7-7-7-7-|-5-5-5-5-5-5-5-5-5-5-5-8-7---5-5-5-5-5-5-5-5-5-5-5-5---|
 E|------------------------|-------------------------------------------------------|


 07:25 - 07:44 = RIFF 5 with LEAD 2

   [LEAD 2]
   [part 1]                       (X2) [part 2]                       (X2)
 e|---------------10------------------|----------------8------------------|
 B|-12--10-12-13-----13-10-----10-12--|-10---8-10-11-----11--8------8-10--|
 G|-------------------------12--------|--------------------------10-------|
 D|-----------------------------------|-----------------------------------|
 A|-----------------------------------|-----------------------------------|
 E|-----------------------------------|-----------------------------------|


 07:44 - 07:57 = RIFF 6 (heavy and fast)

 e|---|
 B|---|
 G|---|
 D|---|
 A|---|
 E|---|


 07:57 - 08:17 = RIFF 7
                                                             (X4)
 e|--------------------------------------------------------------|
 B|-------12--10---------------12--10----------------------------|
 G|-9--9---------12-11---9--9---------12-11-9----9-12-9-12--11---|
 D|--------------------------------------------------------------|
 A|--------------------------------------------------------------|
 E|--------------------------------------------------------------|


 08:17 - 08:36 = SOLO 1

 e|---|
 B|---|
 G|---|
 D|---|
 A|---|
 E|---|


 08:36 - 08:55 = SOLO 2

 e|---|
 B|---|
 G|---|
 D|---|
 A|---|
 E|---|


 08:55 - 09:14 = RIFF 7 (X4)


 09:14 - 10:10 = RIFF 8 (with background chords on 3rd & 4th repeat;
                         slows on 6th repeat, into OUTRO 1)

 e|-------------------------------------------------------------------------10-9---------\
 B|----10-12-12--12-12--12-13-12-10-12---------10-12-12--12-12--12-13-12-10------12-10---\
 G|-9----------------------------------------9-------------------------------------------\
 D|--------------------------------------------------------------------------------------\
 A|--------------------------------------------------------------------------------------\
 E|--------------------------------------------------------------------------------------\

                                                                                       (X6)
 -\-----------------------------------------10-9-------------------------------------------|
 -\----10-12-12--12-12--12-13-12-10-12-----------12-10-12-10-------------------------------|
 -\--9-------------------------------------------------------12-11-12-11-9----12-11-9------|
 -\------------------------------------------------------------------------12---------12---|
 -\----------------------------------------------------------------------------------------|
 -\----------------------------------------------------------------------------------------|


 10:10 - 10:47 = OUTRO 1 (slow and crunchy)

 e|---|
 B|---|
 G|---|
 D|---|
 A|---|
 E|---|


 10:47 - 11:12 = OUTRO 2 (INTRO 1 with ENDING 2)

2.LORD OF THE FLIES

Repeat a couple of times : (Intro)
-]-------------------------------------------------------------|
-]-------------------------------------------------------------|
-]--4--0-0--7--0-0--9--0-0--7--0-0--5^p-4----------------------|
-]--4--0-0--7--0-0--9--0-0--7--0-0--5^p-4----------------------|
-]-------------------------------------------------------------|
-]-------------------------------------------------------------|


   Well this is the intro , just change the rythm from time to time ,
   Best you hear it from the masters themselfs - Murray and Gers .

-]------------------|------------------------------------------|
-]- ----------------|------------------------------------------|
-]---9--12--7--9----|--9--12--7--------------------------------|
-]---9--12--7--9----|--9--12--7--------------------------------|
-]---7--10--5--7----|--7--10--5--------------------------------|
-]------------------|------------------------------------------|


-]--------------------------|------------------------------------------|
-]- ------------------------|------------------------------------------|
-]---9--12--7--9------------|--9--12--7--------------------------------|
-]---9--12--7--9------------|--9--12--7--------------------------------|
-]---7--10--5--7------------|--7--10--5--------------------------------|
-]--------------------------|------------------------------------------|

  I dont care for this  ...


-]--------------------------|------------------------------------------|
-]- ------------------------|------------------------------------------|
-]---9--12--7--9------------|--9--12--7--------------------------------|
-]---9--12--7--9------------|--9--12--7--------------------------------|
-]---7--10--5--7------------|--7--10--5--------------------------------|
-]--------------------------|------------------------------------------|

   I just want to live ...

-]--------------------------|------------------------------------------|
-]- ------------------------|------------------------------------------|
-]---9--12--7--9------------|--9--12--7--------------------------------|
-]---9--12--7--9------------|--9--12--7--------------------------------|
-]---7--10--5--7------------|--7--10--5--------------------------------|
-]--------------------------|------------------------------------------|

  Fate has brought to this ...

-]--------------------------|------------------------------------------|
-]- ------------------------|------------------------------------------|
-]---9--12--7--9------------|--9--12--7--------------------------------|
-]---9--12--7--9------------|--9--12--7--------------------------------|
-]---7--10--5--7------------|--7--10--5--------------------------------|
-]--------------------------|------------------------------------------|

  What was meant to be ....


-]---------------------------------------------------------------------|
-]---------------------------------------------------------------------|
-]---5------------------7-----------------9--9--7-5--------------------|
-]---5------------------7-----------------9--9--7-5--------------------|
-]---3------------------5-----------------7xx7--5-3--------------------|
-]---------------------------------------------------------------------|

  I've found...   this living in danger (and so on until the chorus)

  Chorus :
-]---------------------------------------------------------------------|
-]---------------------------------------------------------------------|
-]---9---------------7-----------5-----------4-----5-5-5---7-----------|
-]---9---------------7-----------5-----------4-----5-5-5---7-----------|
-]---7---------------5-----------3-----------2-----3-3-3---5-----------|
-]---------------------------------------------------------------------|

 Saints and ...  something..    we are ..   flies


 Here goes the solo, Its just by ear, so it ain?t perfect, but its close !!!

-]--------------------------------------------------------------|
-]--------------------------------------------------------------|
-]-15h17--17b--17b--17b--17-15-14----15-17b-17b-17b--22--22b----|
-]--------------------------------------------------------------|
-]--------------------------------------------------------------|
-]--------------------------------------------------------------|

-]--------------------------------------------------------------|
-]----------22-19-17-16-17--------------------------------------|
-]-22b-22b-------------------12-12b11----11-12------------------|
-]------------------------------------12------------------------|
-]--------------------------------------------------------------|
-]--------------------------------------------------------------|

-]----------------19-19-19-19--17-15-14-15-14-------------------|
-]---------------------------------------------15-17------------|
-]--9-9-9-9--7--------------------------------------------------|
-]--------------------------------------------------------------|
-]--------------------------------------------------------------|
-]--------------------------------------------------------------|

3.MAN ON THE EDGE

INTRO
  gtr.1
e:-----------------|-----------------|-----------------|-----------------|
B:-----------------|-----------------|-----------------|-----------------|
G:--9--7-----------|-----9--7--------|--9--7-----------|-----9--7--------|
D:-------10--9-----|--7-------10-----|-------10--9-----|--7-------10-----|
A:-------------10--|-----------------|-------------10--|-----------------|
E:-----------------|-----------------|-----------------|-----------------|
 :   								         |
 :gtr.2                                                                  |
e:-----------------|-----------------|-----------------|-----------------|
B:-----------------|-----------------|-----------------|-----------------|
G:-----------------|-----------------|-----------------|-----------------|
D:-----------------|-----------------|-----------------|-----------------|
A:-7---------------|-----------------|-10--------------|-----------------|
E:-5---------------|-----------------|--8--------------|-----------------|

e:-----------------|-----------------|-----------------|-----------------|
B:-----------------|-----------------|-----------------|-----------------|
G:--9--7-----------|--9--7-----------|--9--7-----------|-----9--7--------|
D:-------10--9-----|-------10--9-----|-------10--9-----|--7-------10-----|
A:-------------10--|-------------10--|-------------10--|-----------------|
E:-----------------|-----------------|-----------------|-----------------|
 :                                                                       |
 :                                                                       |
e:-----------------|-----------------|-----------------|-----------------|
B:-----------------|-----------------|-----------------|-----------------|
G:-----------------|-----------------|-----------------|-----------------|
D:-----------------|-----------------|-----------------|-----------------|
A:-12--------------|-14--------------|-7---------------|-----------------|
E:-10--------------|-12--------------|-5---------------|-----------------|


  gtr.1&2
e:-----------------|-----------------|-----------------|-----------------|
B:-----------------|-----------------|-----------------|-----------------|
G:--7--5--4--5-----|--7--5--4--5-----|--7--5--4--5-----|--7--5--4--5-----|
D:--5--5--5--5-----|--5--5--5--5-----|--5--5--5--5-----|--5--5--5--5-----|
A:-----------------|-----------------|-----------------|-----------------|
E:-----------------|-----------------|-----------------|-----------------|


  1.
e:-------------------------|-------------------------|
B:-------------------------|-------------------------|
G:-------------------------|-------------------------|
D:-0--0-0-0-0--4--0-0-0-0--|-5--0-0-0-0--7--0-0-0-0--|
A:-------------------------|-------------------------|
E:-------------------------|-------------------------|

e:-------------------------|-------------------------|
B:-------------------------|-------------------------|
G:-------------------------|-------------------------|
D:-------------------------|-------------------------|
A:-0--0-0-0-0--4--0-0-0-0--|-5--0-0-0-0--7--0-0-0-0--|
E:-------------------------|-------------------------|

e:-------------------------|-------------------------|
B:-------------------------|-------------------------|
G:-------------------------|-------------------------|
D:-0--0-0-0-0--4--0-0-0-0--|-5--0-0-0-0--7--0-0-0-0--|
A:-------------------------|-------------------------|
E:-------------------------|-------------------------|

e:-------------------------|-------------------------|
B:-------------------------|-------------------------|
G:-------------------------|-------------------------|
D:-------------------------|-------------------------|
A:-0--0-0-0-0--4--0-0-0-0--|-5--0-0-0-0--7--0-0-0-0--|
E:-------------------------|-------------------------|

e:--------------------|--------------------|
B:--------------------|--------------------|
G:--------------------|--------------------|
D:--9--9--9--9--9--9--|--9--9-----5--5-----|
A:--7--7--7--7--7--7--|-10-10-----7--7-----|
E:--------------------|--------------------|

e:--------------------|--------------------|
B:--------------------|--------------------|
G:--------------------|--------------------|
D:--9--9--9--9--9--9--|--7--7-----5--5-----|
A:--7--7--7--7--7--7--|--5--5-----7--7-----|
E:--------------------|--------------------|


e:--------------------|--------------------|
B:--------------------|--------------------|
G:--------------------|--------------------|
D:--9--9--9--9--9--9--|--9--9-----5--5-----|
A:--7--7--7--7--7--7--|-10-10-----7--7-----|
E:--------------------|--------------------|

e:--------------------|
B:--------------------|
G:--------------------|
D:--7--7--7--7--7--7--|
A:--5--5--5--5--5--5--|
E:--------------------|

e:-------------------------|-------------------------|
B:-------------------------|-------------------------|
G:-------------------------|-------------------------|
D:--9--10--12--10---9---7--|--9--10--12--10---9---7--|
A:--7---8--10---8---7---5--|--7---8--10---8---7---5--|
E:-------------------------|-------------------------|

e:-------------------------|-------------------------|
B:-------------------------|-------------------------|
G:-------------------------|-------------------------|
D:--9--10--12--10---9---7--|--9--10--12--10---9---7--|
A:--7---8--10---8---7---5--|--7---8--10---8---7---5--|
E:-------------------------|-------------------------|


  REFRAIN
e:-----------|-------------|--------------|-----------------------|
B:-----------|-------------|--------------|-----------------------|
G:-----------|-------------|--------------|-----------------------|
D:-----------|-------------|--7-----------|--7\9-9-9-9-7\9-9-9-9--|
A:--7--------|--3----------|--5-----------|--5\7-7-7-7-5\7-7-7-7--|
E:--5--------|--1----------|--------------|-----------------------|

e:-----------|-------------|--------------|-----------------------|
B:-----------|-------------|--------------|-----------------------|
G:-----------|-------------|--------------|-----------------------|
D:-----------|-------------|--7-----------|--7\9-9-9-9-7\9-9-9-9--|
A:--7--------|--3----------|--5-----------|--5\7-7-7-7-5\7-7-7-7--|
E:--5--------|--1----------|--------------|-----------------------|

e:-----------------------|
B:-----------------------|
G:-----------------------|
D:--7\9-9-9-9-7\9-9-9-9--|
A:--5\7-7-7-7-5\7-7-7-7--|
E:-----------------------|


  2.
e:-------------------------|-------------------------|
B:-------------------------|-------------------------|
G:-------------------------|-------------------------|
D:-0--0-0-0-0--4--0-0-0-0--|-5--0-0-0-0--7--0-0-0-0--|
A:-------------------------|-------------------------|
E:-------------------------|-------------------------|

e:-------------------------|-------------------------|
B:-------------------------|-------------------------|
G:-------------------------|-------------------------|
D:-------------------------|-------------------------|
A:-0--0-0-0-0--4--0-0-0-0--|-5--0-0-0-0--7--0-0-0-0--|
E:-------------------------|-------------------------|

e:-------------------------|-------------------------|
B:-------------------------|-------------------------|
G:-------------------------|-------------------------|
D:-0--0-0-0-0--4--0-0-0-0--|-5--0-0-0-0--7--0-0-0-0--|
A:-------------------------|-------------------------|
E:-------------------------|-------------------------|

e:-------------------------|-------------------------|
B:-------------------------|-------------------------|
G:-------------------------|-------------------------|
D:-------------------------|-------------------------|
A:-0--0-0-0-0--4--0-0-0-0--|-5--0-0-0-0--7--0-0-0-0--|
E:-------------------------|-------------------------|

e:--------------------|--------------------|
B:--------------------|--------------------|
G:--------------------|--------------------|
D:--9--9--9--9--9--9--|--9--9-----5--5-----|
A:--7--7--7--7--7--7--|-10-10-----7--7-----|
E:--------------------|--------------------|

e:--------------------|--------------------|
B:--------------------|--------------------|
G:--------------------|--------------------|
D:--9--9--9--9--9--9--|--7--7-----5--5-----|
A:--7--7--7--7--7--7--|--5--5-----7--7-----|
E:--------------------|--------------------|

e:--------------------|--------------------|
B:--------------------|--------------------|
G:--------------------|--------------------|
D:--9--9--9--9--9--9--|--9--9-----5--5-----|
A:--7--7--7--7--7--7--|-10-10-----7--7-----|
E:--------------------|--------------------|

e:--------------------|
B:--------------------|
G:--------------------|
D:--7--7--7--7--7--7--|
A:--5--5--5--5--5--5--|
E:--------------------|

e:-------------------------|-------------------------|
B:-------------------------|-------------------------|
G:-------------------------|-------------------------|
D:--9--10--12--10---9---7--|--9--10--12--10---9---7--|
A:--7---8--10---8---7---5--|--7---8--10---8---7---5--|
E:-------------------------|-------------------------|

e:-------------------------|-------------------------|
B:-------------------------|-------------------------|
G:-------------------------|-------------------------|
D:--9--10--12--10---9---7--|--9--10--12--10---9---7--|
A:--7---8--10---8---7---5--|--7---8--10---8---7---5--|
E:-------------------------|-------------------------|

  REFRAIN
e:-----------|-------------|--------------|-----------------------|
B:-----------|-------------|--------------|-----------------------|
G:-----------|-------------|--------------|-----------------------|
D:-----------|-------------|--7-----------|--7\9-9-9-9-7\9-9-9-9--|
A:--7--------|--3----------|--5-----------|--5\7-7-7-7-5\7-7-7-7--|
E:--5--------|--1----------|--------------|-----------------------|

e:-----------|-------------|--------------|-----------------------|
B:-----------|-------------|--------------|-----------------------|
G:-----------|-------------|--------------|-----------------------|
D:-----------|-------------|--7-----------|--7\9-9-9-9-7\9-9-9-9--|
A:--7--------|--3----------|--5-----------|--5\7-7-7-7-5\7-7-7-7--|
E:--5--------|--1----------|--------------|-----------------------|


  SOLO
e:---------------------|---------------------|---------------------|
B:---------------------|---------------------|---------------------|
G:--2--4--5--4--2-4-2--|--2--4--5--4--2-4-2--|--4--6--7--6--4-6-4--|
D:---------------------|---------------------|---------------------|
A:---------------------|---------------------|---------------------|
E:---------------------|---------------------|---------------------|

e:---------------------|----------------------|----------------------|
B:---------------------|----------------------|----------------------|
G:--4--6--7--6--4-6-4--|--7--9--10--9--7-9-7--|--7--9--10--9--7-9-7--|
D:---------------------|----------------------|----------------------|
A:---------------------|----------------------|----------------------|
E:---------------------|----------------------|----------------------|

e:-------------------------|-------------------------|
B:-------------------------|-------------------------|
G:--9--11--12--11--9-11-9--|--9--11--12--11--9-11-9--|
D:-------------------------|-------------------------|
A:-------------------------|-------------------------|
E:-------------------------|-------------------------|

e:---------------------|---------------------|----------------------|
B:---------------------|---------------------|----------------------|
G:--2--4--5--4--2-4-2--|--4--6--7--6--4-6-4--|--7--9--10--9--7-9-7--|
D:---------------------|---------------------|----------------------|
A:---------------------|---------------------|----------------------|
E:---------------------|---------------------|----------------------|

e:-------------------------|-------------------------|
B:-------------------------|-------------------------|
G:--9--11--12--11--9-11-9--|--9--11--12--11--9-11-9--|
D:-------------------------|-------------------------|
A:-------------------------|-------------------------|
E:-------------------------|-------------------------|

  gtr.1-SOLO
  gtr.2-RHYTM
e:--------------------|--------------------|--------------------|
B:--------------------|--------------------|--------------------|
G:--------------------|--------------------|--------------------|
D:--4--4--4--4--4--4--|--4--4--4--2--6--2--|--4--4--4--4--4--4--|
A:--2--2--2--2--2--2--|--2--2--2--0--4--0--|--2--2--2--2--2--2--|
E:--------------------|--------------------|--------------------|

e:--------------------|--------------------|--------------------|
B:--------------------|--------------------|--------------------|
G:--------------------|--------------------|--------------------|
D:--4--4--4--2--6--2--|--4--4--4--4--4--4--|--4--4--4--2--6--2--|
A:--2--2--2--0--4--0--|--2--2--2--2--2--2--|--2--2--2--0--4--0--|
E:--------------------|--------------------|--------------------|

					    gtr.2-SOLO
					    gtr.1-RHYTM
e:--------------------|--------------------|--------------------|
B:--------------------|--------------------|--------------------|
G:--------------------|--------------------|--------------------|
D:--4--4--4--4--4--4--|--4--4--4--2--6--2--|--7--7--7--7--7--7--|
A:--2--2--2--2--2--2--|--2--2--2--0--4--0--|--5--5--5--5--5--5--|
E:--------------------|--------------------|--------------------|

e:--------------------|--------------------|--------------------|
B:--------------------|--------------------|--------------------|
G:--------------------|--------------------|--------------------|
D:--7--7--7--5--9--5--|--7--7--7--7--7--7--|--7--7--7--5--9--5--|
A:--5--5--5--3--7--3--|--5--5--5--5--5--5--|--5--5--5--3--7--3--|
E:--------------------|--------------------|--------------------|

  gtr.1-SOLO
  gtr.2-RHYTM
e:--------------------|--------------------|--------------------|
B:--------------------|--------------------|--------------------|
G:--------------------|--------------------|--------------------|
D:--9--9--9--9--9--9--|--9--9--9--7-11--7--|--9--9--9--9--9--9--|
A:--7--7--7--7--7--7--|--7--7--7--5--9--5--|--7--7--7--7--7--7--|
E:--------------------|--------------------|--------------------|

e:------------------|
B:------------------|
G:------------------|
D:--9--10--11--12---|
A:--7---8---9--10---|
E:------------------|


  gtr.1&2
e:-----------------|-----------------|-----------------|-----------------|
B:-----------------|-----------------|-----------------|-----------------|
G:--7--5--4--5-----|--7--5--4--5-----|--7--5--4--5-----|--7--5--4--5-----|
D:--5--5--5--5-----|--5--5--5--5-----|--5--5--5--5-----|--5--5--5--5-----|
A:-----------------|-----------------|-----------------|-----------------|
E:-----------------|-----------------|-----------------|-----------------|


  3.
e:-------------------------|-------------------------|
B:-------------------------|-------------------------|
G:-------------------------|-------------------------|
D:-0--0-0-0-0--4--0-0-0-0--|-5--0-0-0-0--7--0-0-0-0--|
A:-------------------------|-------------------------|
E:-------------------------|-------------------------|

e:-------------------------|-------------------------|
B:-------------------------|-------------------------|
G:-------------------------|-------------------------|
D:-------------------------|-------------------------|
A:-0--0-0-0-0--4--0-0-0-0--|-5--0-0-0-0--7--0-0-0-0--|
E:-------------------------|-------------------------|

e:-------------------------|-------------------------|
B:-------------------------|-------------------------|
G:-------------------------|-------------------------|
D:-0--0-0-0-0--4--0-0-0-0--|-5--0-0-0-0--7--0-0-0-0--|
A:-------------------------|-------------------------|
E:-------------------------|-------------------------|

e:-------------------------|-------------------------|
B:-------------------------|-------------------------|
G:-------------------------|-------------------------|
D:-------------------------|-------------------------|
A:-0--0-0-0-0--4--0-0-0-0--|-5--0-0-0-0--7--0-0-0-0--|
E:-------------------------|-------------------------|

e:--------------------|--------------------|
B:--------------------|--------------------|
G:--------------------|--------------------|
D:--9--9--9--9--9--9--|--9--9-----5--5-----|
A:--7--7--7--7--7--7--|-10-10-----7--7-----|
E:--------------------|--------------------|

e:--------------------|--------------------|
B:--------------------|--------------------|
G:--------------------|--------------------|
D:--9--9--9--9--9--9--|--7--7-----5--5-----|
A:--7--7--7--7--7--7--|--5--5-----7--7-----|
E:--------------------|--------------------|

e:--------------------|--------------------|
B:--------------------|--------------------|
G:--------------------|--------------------|
D:--9--9--9--9--9--9--|--9--9-----5--5-----|
A:--7--7--7--7--7--7--|-10-10-----7--7-----|
E:--------------------|--------------------|

e:--------------------|
B:--------------------|
G:--------------------|
D:--7--7--7--7--7--7--|
A:--5--5--5--5--5--5--|
E:--------------------|

e:-------------------------|-------------------------|
B:-------------------------|-------------------------|
G:-------------------------|-------------------------|
D:--9--10--12--10---9---7--|--9--10--12--10---9---7--|
A:--7---8--10---8---7---5--|--7---8--10---8---7---5--|
E:-------------------------|-------------------------|

e:-------------------------|-------------------------|
B:-------------------------|-------------------------|
G:-------------------------|-------------------------|
D:--9--10--12--10---9---7--|--9--10--12--10---9---7--|
A:--7---8--10---8---7---5--|--7---8--10---8---7---5--|
E:-------------------------|-------------------------|


  REFRAIN
e:-----------|-------------|--------------|-----------------------|
B:-----------|-------------|--------------|-----------------------|
G:-----------|-------------|--------------|-----------------------|
D:-----------|-------------|--7-----------|--7\9-9-9-9-7\9-9-9-9--|
A:--7--------|--3----------|--5-----------|--5\7-7-7-7-5\7-7-7-7--|
E:--5--------|--1----------|--------------|-----------------------|

e:-----------|-------------|--------------|-----------------------|
B:-----------|-------------|--------------|-----------------------|
G:-----------|-------------|--------------|-----------------------|
D:-----------|-------------|--7-----------|--7\9-9-9-9-7\9-9-9-9--|
A:--7--------|--3----------|--5-----------|--5\7-7-7-7-5\7-7-7-7--|
E:--5--------|--1----------|--------------|-----------------------|

e:-----------|-------------|--------------|-----------------------|
B:-----------|-------------|--------------|-----------------------|
G:-----------|-------------|--------------|-----------------------|
D:-----------|-------------|--7-----------|--7\9-9-9-9-7\9-9-9-9--|
A:--7--------|--3----------|--5-----------|--5\7-7-7-7-5\7-7-7-7--|
E:--5--------|--1----------|--------------|-----------------------|

e:-----------|-------------|--------------|-----------------------|
B:-----------|-------------|--------------|-----------------------|
G:-----------|-------------|--------------|-----------------------|
D:-----------|-------------|--7-----------|--7\9-9-9-9-7\9-9-9-9--|
A:--7--------|--3----------|--5-----------|--5\7-7-7-7-5\7-7-7-7--|
E:--5--------|--1----------|--------------|-----------------------|

e:-----------------------|
B:-----------------------|
G:-----------------------|
D:--7\9-9-9-9-7\9-9-9-9--|
A:--5\7-7-7-7-5\7-7-7-7--|
E:-----------------------|

e:-----------|-------------|--------------|---------------|
B:-----------|-------------|--------------|---------------|
G:-----------|-------------|--------------|---------------|
D:--9--------|-10----------|-10-----------|-12------------|
A:--7--------|--8----------|--9-----------|-10------------|
E:-----------|-------------|--------------|---------------|

e:---------------------|-------------||
B:---------------------|-------------||
G:--2--4--5--4--2-4-2--|-0\2---------||
D:---------------------|-------------||
A:---------------------|-------------||
E:---------------------|-------------||.

4.FORTUNES OF WAR

main riff
e:---------------------------------------------------------------------------|
B:---------------------------------------------------------------------------|
G:------7-----7-----7------------12-----12-----12----------7---7---7---------|
D:---7-----7-----7-----7------12-----12-----12----12-----7---7---7---7-------|
A:9-----------------------10---------------------------5---------------------|
E:---------------------------------------------------------------------------|



e:---------------------------------------------------------------------------|
B:---------------------------------------------------------------------------|
G:----4---4---4---------5---5---5----------5---5---5-------------------------|
D:--4---4---4---4-----5---5---5---5------5---5---5---5-----------------------|
A:2-----------------3------------------7-------------------------------------|
E:---------------------------------------------------------------------------|


                          end of mainriff riff2        end 1.&3.     end 2.
e:---------------------------------------------------------------------------|
B:---------------------------------------------------------------------------|
G:-----7---7---7---------7---7---7-----------------------------------9-----9-|
D:---7---7---7---7-----7---7---7---7------9---9---9----12----12---------7----|
A:-9-----------------9----------------------7---7---7-----10-----------------|
E:---------------------------------------------------------------------------|


    end.4.                                riff2.2nd guitar   end 1.&3
e:---------------------------------------------------------------------------|
B:---------------------------------------------------------------------------|
G:---------------------------------------------------------------------------|
D:--5---5-----7---------------------------9-9-9--9---9--9-9---12-12-12-------|
A:----3-----5---5-------------------------7-7-7--7---7--7-7---10-10-10-------|
E:---------------------------------------------------------------------------|


     end.2.   end.4.                       riff2.1.  first 3 times
e:---------------------------------------------------------------------------|
B:---------------------------------------------------------------------------|
G:---9-9-9---------------------------------14-12-----------------------------|
D:---7-7-7-----5-5-5--7-7-7----------------------14-12----12-12-14-12-12-14--|
A:-------------3-3-3--5-5-5----------------------------14--------------------|
E:---------------------------------------------------------------------------|


     on 4.th.time                                 RiffA
e:---------------------------------------------------------------------------|
B:---------------------------------------------------------------------------|
G:----14--12--------------------------------16-14-16-12--16-14-16-12---16-14-|
D:-----------14--12-----12--12--10-------------------------------------------|
A:-------------------14------------------------------------------------------|
E:---------------------------------------------------------------------------|



e:---------------------------------------------------------------------------|
B:---------------------------------------------------------------------------|
G:16---17/16/17--14-12--14-12------------------------------------------------|
D:-------------------------------16--12--14----------------------------------|
A:---------------------------------------------------------------------------|
E:---------------------------------------------------------------------------|

Rhytm under solo:

E5   G5   C5   D5  A5  C5   D5


Chorus:

E5   G5  C5  A5  C5   D5


Verse 3 & 4


E5  C5  D5

E5  C5  A5

E5  C5  D5

E5  B5  C5  A5


Rhytm under riffA:

E5  C5  A5  C5  D5

5.LOOK FOR THE TRUTH

Intro : Em   G    Em   C   D   Em   � en arp�ge

1er Couplet : en arp�ge
Em                C
All my dark dreams drift
G                  D
Like smoke  in the breeze
Em                        C
The fear grips me as I fall towards my sleep
G                                         D
Here comes the nightmare that never ends
Em                        C
Here is the dream that makes monsters of men

6.THE AFTERMATH

Opening-riff:
E-------------------|-------------------|
B----------0--------|----------3--------|
G------2-------2----|------2-------2----|
D----2---2---2---2--|----3---3---3---3--|
A--0----------------|--0----------------|
E-------------------|-------------------|

E-------------------|-----------------|
B----------0--------|-----------------|
G------2-------2----|------0-----0----|
D----2---2---2---2--|----0-----0------|
A--0----------------|--3-----2--------|
E-------------------|--------------3--|

Solo while opening-riff:

E-------------|------------------|
B-------------|------3-----------|
G--2---4p5-2--|--4p5-----5-4--5--|
D-------------|------------------|
A-------------|------------------|
E-------------|------------------|

E-------------|-------------------|
B-------------|------3------------|
G--2---4p5-2--|--4p5-----5-4--5-2-|
D-------------|-------------------|
A-------------|-------------------|
E-------------|-------------------|

Verse:
E--------3-----3-3-3----3--|--3---3----3-----------2-2--|
B--2---2-3-2---3-3-3-3--3--|--3---3-3--3---1-1-1-1-3-3--|
G--2---2-0-2---0-0-0-2--0--|--0---0-2--0---0-0-0-0-2-2--|
D--2---2-0-2---0-0-0-0--0--|--0---0-0--0---2-2-2-2-0-0--|
A--0---0-2-0---2-2-2-0--2--|--2---2-0--2---3-3-3-3------|
E--------3-----3-3-3-2--3--|--3---3-2--3----------------|

Chorus:
E------------|-------------------|
B------------|-------------------|
G--2---5--7--|--------------7-7--|
D--2---5--7--|--7--5---5-5--7-7--|
A--0---3--5--|--7--5---5-5--5-5--|
E------------|--5--3---3-3-------|

E------------|------------------------|
B------------|------------------------|
G--2---5--7--|------------------------|
D--2---5--7--|--7--5---5-4-2---4-2----|
A--0---3--5--|--7--5---------------5--|
E------------|--5--3------------------|

End of chorus.

Riff 2.
   After the war.        Left feeling no one has...
E-----------------------|--------------------|
B-----------------------|--------------------|
G--2--2--2--2-----------|--------------------|
D--2--2--2--2-----------|--3--3--3--3--3--3--|
A--0--0--0--0-----------|--3--3--3--3--3--3--|
E-----------------------|--1--1--1--1--1--1--|

..won.
E-----------------------|--------------------|
B-----------------------|--------------------|
G-----------------------|--------------------|
D--5--5--5--5-----------|--------------------|
A--5--5--5--5-----------|--3--2-----------2--|
E--3--3--3--3-----------|--------3--0--3-----|

   After the war.        What does a soldier be-...
E-----------------------|--------------------|
B-----------------------|--------------------|
G--2--2--2--2-----------|--------------------|
D--2--2--2--2-----------|--3--3--3--3--3--3--|
A--0--0--0--0-----------|--3--3--3--3--3--3--|
E-----------------------|--1--1--1--1--1--1--|

..come.
E-----------------------|--------------------|
B-----------------------|--------------------|
G-----------------------|--------------------|
D--5--5--5--5-----------|--------------------|
A--5--5--5--5-----------|--3--2------3---2---|
E--3--3--3--3-----------|--------3-----------|

End of riff 2.

Riff 3:
E---------------|---------------|
B---------------|---------------|
G--0p2--2--2-2--|--0p2--2--2-2--|
D--0p2--2--2-2--|--0p2--2--2-2--|
A--0-0--0--0-0--|--0-0--0--0-0--|
E---------------|---------------|

E-------------------|-------------------|
B-------------------|-------------------|
G--8p10--10--10-10--|--8p10--10--10-10--|
D--8p10--10--10-10--|--8p10--10--10-10--|
A--8-8---8---8--8---|--8-8---8---8--8---|
E-------------------|-------------------|

E--------------------|--------------------|
B--------------------|--------------------|
G--10p12--12--12-12--|--10p12--12--12-12--|
D--10p12--12--12-12--|--10p12--12--12-12--|
A--10-10--10--10-10--|--10-10--10--10-10--|
E--------------------|--------------------|

E--------------------|--------------------|
B--------------------|--------------------|
G--10p12--12--12-12--|--10p12--12--12-12--|
D--10p12--12--12-12--|--10p12--12--12-12--|
A--10-10--10--10-10--|--10-10--10--10-10--|
E--------------------|--------------------|

E---------------|---------------|
B---------------|---------------|
G--0p2--2--2-2--|--0p2--2--2-2--|
D--0p2--2--2-2--|--0p2--2--2-2--|
A--0-0--0--0-0--|--0-0--0--0-0--|
E---------------|---------------|

E---------------|---------------|
B---------------|---------------|
G--3p5--5--5-5--|--5p7--7--7-7--|
D--3p5--5--5-5--|--5p7--7--7-7--|
A--3-3--3--3-3--|--5-5--5--5-5--|
E---------------|---------------|

E---------------|---------------|
B---------------|---------------|
G--7p9--9--9-9--|--7p9--9--9-9--|
D--7p9--9--9-9--|--7p9--9--9-9--|
A--7-7--7--7-7--|--7-7--7--7-7--|
E---------------|---------------|

E---------------|---------------|
B---------------|---------------|
G--7p9--9--9-9--|--7p9--9--9-9--|
D--7p9--9--9-9--|--7p9--9--9-9--|
A--7-7--7--7-7--|--7-7--7--7-7--|
E---------------|---------------|

End of riff 3.

Solo while riff 3.
E-----------------------------------|
B--10---12-13-13-12-10----10-12-----|
G----------------------12-------12--|
D-----------------------------------|
A-----------------------------------|
E-----------------------------------|

E--------------------------------------|
B--10---10-12-13-13-12-10----10-12-12--|
G-------------------------12-----------|
D--------------------------------------|
A--------------------------------------|
E--------------------------------------|

Bridge before solo:
   I'm just a soldier.
E--------------|----------------|
B--------------|----------------|
G--10--10--10--|--12------------|
D--10--10--10--|--12------------|
A--8---8---8---|--10------------|
E--------------|----------------|

Solo-riff 1:
E-------------------|-------------------|
B-------------------|-------------------|
G-------------------|-------------------|
D-------------------|-------------------|
A--0-0-0-0-0-0-0-0--|--0-0-0-0-0-0-0-0--|
E-------------------|-------------------|

E-------------------|-------------------|
B-------------------|-------------------|
G-------------------|-------------------|
D-------------------|-------------------|
A-------------------|-------------------|
E--1-1-1-1-1-1-1-1--|--1-1-1-1-1-1-1-1--|

E-------------------|-------------------|
B-------------------|-------------------|
G-------------------|-------------------|
D-------------------|-------------------|
A-------------------|-------------------|
E--3-3-3-3-3-3-3-3--|--3-3-3-3-3-3-3-3--|

E-------------------|-------------------|
B-------------------|-------------------|
G-------------------|-------------------|
D-------------------|-------------------|
A-------------------|-------------------|
E--3-3-3-3-3-3-3-3--|--3-3-3-3-3-3-3-3--|

E-------------------|-------------------|
B-------------------|-------------------|
G-------------------|-------------------|
D-------------------|-------------------|
A--0-0-0-0-0-0-0-0--|--0-0-0-0-0-0-0-0--|
E-------------------|-------------------|

E-------------------|-------------------|
B-------------------|-------------------|
G-------------------|-------------------|
D-------------------|-------------------|
A--3-3-3-3-3-3-3-3--|--5-5-5-5-5-5-5-5--|
E-------------------|-------------------|

E-------------------|-------------------|
B-------------------|-------------------|
G-------------------|-------------------|
D-------------------|-------------------|
A--7-7-7-7-7-7-7-7--|--7-7-7-7-7-7-7-7--|
E-------------------|-------------------|

E-------------------|-------------------|
B-------------------|-------------------|
G-------------------|-------------------|
D-------------------|-------------------|
A--7-7-7-7-7-7-7-7--|--7-7-7-7-7-7-7-7--|
E-------------------|-------------------|

End of solo-riff 1.

Solo-riff 2:
E-------------------|-------------------|
B-------------------|-------------------|
G-------------------|-------------------|
D-------------------|-------------------|
A--0-0-0-0-0-0-0-0--|--0-0-0-0-0-0-0-0--|
E-------------------|-------------------|

E-------------------|-------------------|
B-------------------|-------------------|
G-------------------|-------------------|
D-------------------|-------------------|
A-------------------|-------------------|
E--1-1-1-1-1-1-1-1--|--1-1-1-1-1-1-1-1--|

E-------------------|-------------------|
B-------------------|-------------------|
G-------------------|-------------------|
D-------------------|-------------------|
A-------------------|-------------------|
E--3-3-3-3-3-3-3-3--|--3-3-3-3-3-3-3-3--|

E-------------------|-------------------|
B-------------------|-------------------|
G-------------------|-------------------|
D-------------------|-------------------|
A--3-3-3-3-3-3-3-3--|--5-5-5-5-5-5-5-5--|
E-------------------|-------------------|

End of solo-riff 2.

Bridge during the end of the solo before the riff 2.
E-------------------|-------------------|
B-------------------|-------------------|
G-------------------|-------------------|
D-------------------|-------------------|
A-------------------|-------------------|
E--0-0-0-0-0-0-0-0--|--0-0-0-0-0-0-0-0--|

E-------------------|-------------------|
B-------------------|-------------------|
G-------------------|-------------------|
D-------------------|-------------------|
A-------------------|-------------------|
E--0-0-0-0-0-0-0-0--|--0-0-0-0-0-0-0-0--|

E------------------------|
B------------------------|
G--5--5--5--7--7---------|
D--5--5--5--7--7---------|
A--3--3--3--5--5---------|
E------------------------|

7.JUDGEMENT OF HEAVEN

 This Is a bass line but try it on your guitar , its close enough.

-]---------------------------------------------------------------|
-]---------------------------------------------------------------|
-]---------------------------------------------------------------|
-]-2-xx-2-xx-2-xx-0-2-xx-2-xx-2--4-xx-4-xx-4--1-xx-2-xx-1--------|
-]---------------------------------------------------------------|
-]---------------------------------------------------------------|

  Listen for timing @!

-]-----------------------------------------------|---------------|
-]-----------------------------------------------|---------------|
-]-9--9--9--9--9---11--11--11--11--11----8--8--8-|-9--9--9--8--8-|
-]-----------------------------------------------|---------------|
-]-7--7--7--7--7---9---9---9---9---9-----6--6--6-|-7--7--7--6--6-|
-]-----------------------------------------------|---------------|

-]---------------------------------------------------------------|
-]---------------------------------------------------------------|
-]-7--7--7--7--7---6--6--6--6---9--9--9---8--8--8--8-------------|
-]---------------------------------------------------------------|
-]-5--5--5--5--5---4--4--4--4---7--7--7---6--6--6--6-------------|
-]---------------------------------------------------------------|

  But thats the easy  way ......

-]---------------------------------------------------------------|
-]---------------------------------------------------------------|
-]-7--7--7--7--7-----7-6-4-4-4-4-4-------------------------------|
-]---------------------------------------------------------------|
-]-5--5--5--5--5-----5-4-2-2-2-2-2-------------------------------|
-]---------------------------------------------------------------|



-]---------------------------------------------------------------|
-]---------------------------------------------------------------|
-]-9---9---9--7---7---7--5--5--5--5--5--5------------------------|
-]-9---9---9--7---7---7--5--5--5--5--5--5------------------------|
-]-7-x-7-x-7--5-x-5-x-5--3xx3xx3xx3xx3xx3------------------------|
-]---------------------------------------------------------------|

  Your serching in the dark ......



  From Now On You Have to Have Rythem!!!!!!!!!!!!!

  Listen to the Song it self to get the correct Rythem .

-]-----------------------------------------------------------------------|
-]-----------------------------------------------------------------------|
-]-3--3--3------5--5--5------7--7--7------5--5--5------7--7--7--7------5-|
-]-3--3--3------5--5--5------7--7--7------5--5--5------7--7--7--7------5-|
-]-1xx1xx1xx----3xx3xx3xx----5xx5xx5xx----3xx3xx3xx----5xx5xx5xx5....--3-|
-]-----------------------------------------------------------------------|

  Tell me of my   Fate     Tell me of my    Place     Tell me if I... Peace

-]-----------------------------------------------------------------------|
-]-----------------------------------------------------------------------|
-]-9---9---9---9----------9---7--5---5---5---5----------7---7---7---777--|
-]-9---9---9---9----------9---7--5---5---5---5----------7---7---7---777--|
-]-7-x-7-x-7-x-7----------7---5--3-x-3-x-3-x-3----------5-x-5-x-5-x-555--|
-]-----------------------------------------------------------------------|

 If you could live...   Again   Whould you change ...   Or leave it all ...

-]-----------------------------------------------------------------------|
-]-----------------------------------------------------------------------|
-]-9---9---9---9------9---7--5---5------12-12--777-----------------------|
-]-9---9---9---9------9---7--5---5---5--12-12--777-----------------------|
-]-7-x-7-x-7-x-7------7---5--3-x-3-x-5--10x10--555-----------------------|
-]-----------------------------------3-----------------------------------|

 If you had the ... Again    Whould you a thing at All ???????????????

-]-----------------------------------------------------------------------|
-]-----------------------------------------------------------------------|
-]-9---9---9---9----------9---7--5---5---5---5----------7---7---7---777--|
-]-9---9---9---9----------9---7--5---5---5---5----------7---7---7---777--|
-]-7-x-7-x-7-x-7----------7---5--3-x-3-x-3-x-3----------5-x-5-x-5-x-555--|
-]-----------------------------------------------------------------------|

  When you look back .........................

-]-----------------------------------------------------------------------|
-]-----------------------------------------------------------------------|
-]-9---9---9---9------9---7--5---5------12-12--777-----------------------|
-]-9---9---9---9------9---7--5---5---5--12-12--777-----------------------|
-]-7-x-7-x-7-x-7------7---5--3-x-3-x-5--10x10--555-----------------------|
-]-----------------------------------3-----------------------------------|



-]-------------------------------------------|---------------------------|
-]-------------------------------------------|---------------------------|
-]-9--9--9----7--7--7----5--5--5----7--7--7--|--7--7--7--9--9--9--7--7---|
-]-9--9--9----7--7--7----5--5--5----7--7--7--|--7--7--7--9--9--9--7--7---|
-]-7xx7xx7xx--5xx5xx5xx--3xx3xx3xx--5xx5xx5--|--5xx5xx5--7xx7xx7--5xx5---|
-]-------------------------------------------|---------------------------|

  All of my    Life      I have     Belived  |  Waiting for me , Waiting for me

  Judgement    Of Heaven ..................  |

-]-----------------------------------------------------------------------|
-]-----------------------------------------------------------------------|
-]-9--12--7--9--5--7----9--12--7--9--12--14------------------------------|
-]-9--12--7--9--5--7----9--12--7--9--12--14------------------------------|
-]-7xx10xx5xx7xx3xx5----7xx10xx5xx7xx10--12------------------------------|
-]-----------------------------------------------------------------------|

  Yeah , Yeah

-]-----------------------------------------------------|
-]-----------------------------------------------------|
-]-12-14-15--12-14-15--12-14-15--12-14-15--12-14-------|
-]-----------------------------------------------------|
-]-----------------------------------------------------|
-]-----------------------------------------------------|

-]-----------------------------------------------------|
-]-----------------------------------------------------|
-]-12-14-15--12-14-15--12-14-15--12-14---17-15-14-12---|
-]-----------------------------------------------------|
-]-----------------------------------------------------|
-]-----------------------------------------------------|

-]-----------------------------------------------------|
-]-----------------------------------------------------|
-]-12-14-15--12-14-15--12-14-15--12-14-15---14-14------|
-]-----------------------------------------------------|
-]-----------------------------------------------------|
-]-----------------------------------------------------|

-]-----------------------------------------------------|
-]-----------------------------------------------------|
-]-12--14--15--12--14--15--19-20-17---15-14-12---------|
-]-----------------------------------------------------|
-]-----------------------------------------------------|
-]-----------------------------------------------------|

  All of my , now I have believed ....

-]-----------------------------------------------------|
-]-----------------------------------------------------|
-]-12--14--15--11--12--14--14-15-12--------------------|
-]-----------------------------------------------------|
-]-----------------------------------------------------|
-]-----------------------------------------------------|

8.BLOOD ON THE WORLD'S HANDS

Intro (2X):

e|-----------------|-------------5-----|
B|--5-5--5-7-8-7-5-|--5-5--5-7-8---8-7-|
G|-----------------|-------------------|
D|-----------------|-------------------|
A|-----------------|-------------------|
E|-----------------|-------------------|

e|-----------------|-------------------|
B|--5-5--5-7-8-7-5-|--5-5--5-7-8-----7-|
G|-----------------|-------------4-7---|
D|-----------------|-------------------|
A|-----------------|-------------------|
E|-----------------|-------------------|

VERSE-1:
 C5  C5   C5  C5   C5 G5 G5 G5   C5  C5   C5  C5   C5 G5 G5 G5
SOMETIMES IT MAKES ME WONDER  | SOMETIMES IT MAKES ME QUESTION
SOMETIMES IT MAKES ME SADDENED| ALWAYS IT MAKES ME ANGRY BUT...
WHEN YOU CAN SEE IT HAPPENING | THE MADNESS THAT'S ALL AROUND YOU
NOBODY SEEMS TO WORRY         | THE WORLD SEEMS SO POWERLESS TO...

CHORUS:
ACT !                               IT'S OUT OF
CONTROL                             BLOOD ON THE
WORLD'S HANDS                       EACH DAY A
NEW TOLL

e|-------------------------------------------|
B|-------------------------------------------|
G|-------------------------------------------|
D|-------------------------------------5-----|
A|-3-2-0-0-0-0-3-2-0-0-0-0-5-4-0-0-0-0---5-7-|
E|-------------------------------------------|


VERSE-2:
 C5  C5   C5  C5   C5 G5 G5 G5   C5  C5   C5  C5   C5 G5 G5 G5
ANOTHER ASSINATION            | THE SAME DAY A NEW CREATION
BUT WHAT ARE THEY COMING INTO | SECURITY OF A WORLD THAT BRING...
ONE DAY ANOTHER KILLING       | SOMEWHERE THERE'S SOMEONE STARVING
ANOTHER A SAVAGE RAPPING      | MEANWHILE THERE'S SOMEONE LAUGHTING...

CHORUS.

RIFF-1 (4X)
e|-------------------------------------------|
B|-------------------------------------------|
G|-------------------------------------------|
D|-------------------------------------5-----|
A|-0-0-7-8-7-0-0-0-7-8-7-0-0-0-7-8-7-0---5-7-|
E|-------------------------------------------|


Solo riff (for guitar I- 4X)

e|----------------------|----------------------|
B|----------------------|----------------------|
G|---------9--7--5--5-5-|---------7--7---------|
D|---------9--7--5--5-5-|---------7--7--7--7-7-|
A|---------7--5--3--3-3-|---------9--5--7--7-7-|
E|-0-0-0-0--------------|-0-0-0-0-------5--5-5-|

RIFF-2 (2X):

e|--------------------------------|
B|--------------------------------|
G|--------------------------------|
D|--------------------------------|
A|-3-2-0-0-5-4-0-0-7-6-0-10-9-0-9-|
E|--------------------------------|

Solo-riff (4x).

RIFF-3(2X)
 |GUITAR-I                        |
e|--------------------------------|
B|--------------------------------|
G|--------------------------------|
D|--------------------------------|
A|-3-2-0-0-5-4-0-0-7-6-0-10-9-0-9-|
E|--------------------------------|
                                 |
 |GUITAR-II                 /FULL\|

e|--------------------------12-12-|
B|--------------------------12-12-|
G|--------------------------------|
D|--------------------------------|
A|--------------------------------|
E|--------------------------------|


RIFF-4:
Guitar I:
           Blood on the world's hands       Blood on the world's hands
e|--------------------------------|---------------------------------|
B|--------------------------------|---------------------------------|
G|--------------------------------|---------------------------------|
D|-7-7--7-7-7----------7-7--7-7-7-|-5-5--5-5-5----------5-5--5-5-5--|
A|-7-7--7-7-7----------7-7--7-7-7-|-5-5--5-5-5----------5-5--5-5-5--|
E|-5-5--5-5-5----------5-5--5-5-5-|-3-3--3-3-3----------3-3--3-3-3--|
             |Let ring|                       |Let ring|
Guitar II:
e|------------3---2---0-----------|------------3---2---0------------|
B|--------------------------------|---------------------------------|
G|--------------------------------|---------------------------------|
D|--------------------------------|---------------------------------|
A|--------------------------------|---------------------------------|
E|--------------------------------|---------------------------------|


RIFF-5 (3x and all full and the other guitar plays RIFF-4):

e|-3-2---0--3-0-|
B|-----3--------|
G|--------------|
D|--------------|
A|--------------|
E|--------------|


RIFF-4.

RIFF-1.

VERSE-3:
 C5  C5   C5  C5   C5 G5 G5 G5   C5  C5   C5  C5   C5 G5 G5 G5
BRUTALITY AND AGGRESSION           | TOMORROW ANOTHER LESSON
EXPECTING ANOTHER AIR RAID         | PRAYING FOR A CEASEFIRE...
THEY SAY THINGS ARE GETTING BETTER | NO NEED TO BE COMPLACENT
THERE'S CHAOS ACROSS THE BORDER    | AND ONE DAY IT COULD BE HAPPENING...

FINAL RIFF (PLAY CHORUS RIFF 'TILL THE END):
TO US                               IT'S OUT OF
CONTROL                             BLOOD ON THE
WORLD'S HANDS                       IT'S OUR
EPITAPH                             IT'S OUT OF
CONTROL                             SOMEONE SHOULD
KNOW                                BLOOD ON THE
WORLD'S HANDS                       SOMEONE SHOULD !
e|-------------------------------------------|
B|-------------------------------------------|
G|-------------------------------------------|
D|-------------------------------------5-----|
A|-3-2-0-0-0-0-3-2-0-0-0-0-5-4-0-0-0-0---5-7-|
E|-------------------------------------------|

9.THE EDGE OF DARKNESS

Helicopter sound...   4x  Rhy.#1
---------|------------||-----------------|-----------------|----------------|
---------|------------||--------5-----5--|--------3-----3--|--------5-----5-|
---------|--4--2--4--*||--4--4-----4-----|--2--2-----2-----|--4--4-----4----|
---------|--4--0--4--*||--4--------------|--0--------------|--4-------------|
---------|--2--0--2---||--2--------------|--0--------------|--2-------------|
---------|------------||-----------------|-----------------|----------------|


                         2x  Rhy.#2 (w/vocal)
|------------------------||--------------------------|----------------------|
|------------------------||--------5-----5-----5-----|----------------------|
|-----------5--------7--*||--4--4-----4-----4-----4--|--2-----3-----3-----3-|
|--------5--------7-----*||--2-----------------------|--0--2-----2-----2----|
|-----3--------5---------||--------------------------|----------------------|
|------------------------||--------------------------|----------------------|


                                 1st                      2nd
---|--------------------------|------------------------|--------------------|
---|--------5-----5-----5-----|------------------------|--------------------|
---|--4--4-----4-----4-----4--|---------5-----------7--|---------5----------|
2--|--2-----------------------|------5-----------7-----|------5-----------2-|
---|--------------------------|---3-----------5--------|---3-----------0----|
---|--------------------------|------------------------|--------------------|


    x4   Rhytm#3/w.dist                                         1st
----||------------------------------------------------------|---------------|
----||------------------------------------------------------|---------------|
2--*||---9--9--9--9--9-----7--7--7--7--7-----9--9--9--9--9--|---5--5--5-----|
---*||---9--9--9--9--9-----7--7--7--7--7-----9--9--9--9--9--|---5--5--5-----|
----||---7--7--7--7--7-----5--5--5--5--5-----7--7--7--7--7--|---3--3--3-----|
----||------------------------------------------------------|---------------|


             2nd                   x3   variation of Rhy.#3
---------|-------------------------||---------------------------------------|
---------|-------------------------||---------------------------------------|
7--7--7--|---5--5--5-----2--2--2--*||---9--9--9--9--9-----5--5--5--5--5-----|
7--7--7--|---5--5--5-----2--2--2--*||---9--9--9--9--9-----5--5--5--5--5-----|
5--5--5--|---3--3--3-----0--0--0---||---7--7--7--7--7-----3--3--3--3--3-----|
---------|-------------------------||---------------------------------------|


                                            Rhy.#4
---------------------------------------||-----------------------------------|
---------------------------------------||--------------------------------12-|
7--7--7--7--7-----5--5--5-----7--7--7--||------9--11--12--11--9--11--12-----|
7--7--7--7--7-----5--5--5-----7--7--7--||---9-------------------------------|
5--5--5--5--5-----3--3--3-----5--5--5--||-----------------------------------|
---------------------------------------||-----------------------------------|

----------------------------------------------------------------------------|
-------------------------------------------12--12~~~------------------------|
12--11--9~~~-----9--11--12--11--9--11--12----------------9--11--12--11--9---|
--------------9---------------------------------------9---------------------|
----------------------------------------------------------------------------|
----------------------------------------------------------------------------|


                              1st/3rd
--------------------------|------------------------------------------------|
--------12----------------|------------------------------------------------|
11--12------12--11--9~~~--|------9--11--12--11--9--------9--11--12--11--9--|
--------------------------|---9-----------------------9--------------------|
--------------------------|------------------------------------------------|
--------------------------|------------------------------------------------|


2nd                        Rhy.#5
-----------------------||---------------------------------------------------|
-----------------------||---------------------------------------------------|
----9--11--12--11--9---||--9-----9--9--9--9--9--9-----9--9--9-----9--9--9---|
-9---------------------||--9-----9--9--9--9--9--9-----9--9--9-----9--9--9---|
-----------------------||--7-----7--7--7--7--7--7-----7--7--7-----7--7--7---|
-----------------------||---------------------------------------------------|

----------------------------------------------------------------------------|
----------------------------------------------------------------------------|
9--9--9-----9--9--9-----9--9--12-----7---7--7--7-----7--7--7-----7--7--7----|
9--9--9-----9--9--9-----9--9--12-----7---7--7--7-----7--7--7-----7--7--7----|
7--7--7-----7--7--7-----7--7--10-----5---5--5--5-----5--5--5-----5--5--5----|
----------------------------------------------------------------------------|


                                        2x Rhy.#4(2nd)  Rhy.#5 x4Rhy.#4(2nd)
----------------------------------------||------------|--------||----------|
----------------------------------------||------------|--------||----------|
7--7--4-----4--4--4-----4--4--5-----9--*||------------|-------*||----------|
7--7--4-----4--4--4-----4--4--5-----9--*||------------|-------*||----------|
5--5--2-----2--2--2-----2--2--3-----7---||------------|--------||----------|
----------------------------------------||------------|--------||----------|


Play Rhy.#5 during Guitar solos...


----------------------------------------------------------------------------|
----10--12--13--12--10--10---------10--12--10-------------------------------|
12-----------------------------12--------------12--12--11------9--11--12--9-|
-----------------------------------------------------------12---------------|
----------------------------------------------------------------------------|
----------------------------------------------------------------------------|


 5x  Rhy.#3        2x  Rhy.#2        2x  then, play this part...
-||----------------||----------------||--------------------------|----------|
-||----------------||----------------||--------5-----5-----5-----|----------|
*||---------------*||---------------*||--4--4-----4-----4-----4--|--2-----3-|
*||---------------*||---------------*||--2-----------------------|--0--2----|
-||----------------||----------------||--------------------------|----------|
-||----------------||----------------||--------------------------|----------|


                  slower.........................
---------------|-----------------------------------||-----------------------|
---------------|--------5-----5-----5-----5-----5--||-----------------------|
---3-----3-----|--4--4-----4-----4-----4-----4-----||-----------------------|
2-----2-----2--|--2--------------------------------||-----------------------|
---------------|-----------------------------------||-----------------------|
---------------|-----------------------------------||-----------------------|


10.2 A.M.

ntro:Gtr1(accoustic)
|--------------0--|--------------0--|--------------0--|-----------------|
|-----------0-----|-----------0-----|-----------0-----|-----------0-----|
|--------5--------|--------5--------|--------5--------|--------5--------|
|-----2-----------|-----2-----------|-----4-----------|-----2-----------|
|--0--------------|--3--------------|--5--------------|--0--------------|
|-----------------|-----------------|-----------------|-----------------|
 Play this Intro-part 4 times

 Gr2(clean)
|-----------------------------------------------------------------------|
|--------8h10p8-------------8h10p8-------------8h10p8-------------------|
|--------------9-7----------------9-7----------------9-7---7------------|
|-----------------10-----------------10-----------------10--------------|
|-----------------------------------------------------------------------|
|-----------------------------------------------------------------------|
 Play this fill-in at the third time of the intropart

|-----------------------------------------------------------------------|
|--------8h10p8-------------8h10p8-------------8h10p8-------------------|
|--------------9-7----------------9-7----------------9-7----------------|
|-----------------10-----------------10-----------------(10)-10---------|
|-----------------------------------------------------------------------|
|-----------------------------------------------------------------------|
 Play this fill-in at the fourd time of the intropart

 Verse(accoustic)
|--------------------------|--------------------------|
|--------------0-----------|--------------0-----------|
|--------2-----------2-----|--------0-----------0-----|
|-----2-----2-----2-----2--|-----2-----2-----2-----2--|
|--0-----------------------|--3-----------------------|
|--------------------------|--------------------------|

|--------------------------|--------------------------|
|--------------0-----------|--------------0-----------|
|--------0-----------0-----|--------2-----------2-----|
|-----4-----4-----4-----4--|-----2-----2-----2-----2--|
|--5-----------------------|--0-----------------------|
|--------------------------|--------------------------|
 Play this 4 times

  chorus(distortion)
|------------------------------------------------|
|------------------------------------------------|
|-------------5-x-x-x-5--7-x-x-x-7---------------|
|--7-x-x-x-7--5-x-x-x-5--7-x-x-x-7--7-x-x-x-7\5--|
|--7-x-x-x-7--3-x-x-x-3--5-x-x-x-5--7-x-x-x-7\5--|
|--5-x-x-x-5------------------------5-x-x-x-5\3--|

|------------------------------------------------|
|------------------------------------------------|
|------------------------7-x-x-x-7---------------|
|--7-x-x-x-7--5-x-x-x-5--7-x-x-x-7--7-x-x-x-7\5--|
|--7-x-x-x-7--5-x-x-x-5--5-x-x-x-5--7-x-x-x-7\5--|
|--5-x-x-x-5--3-x-x-x-3-------------5-x-x-x-5\3--|

|------------------------------------------------|
|------------------------------------------------|
|-------------5-x-x-x-5--7-x-x-x-7---------------|
|--7-x-x-x-7--5-x-x-x-5--7-x-x-x-7--7-x-x-x-7\5--|
|--7-x-x-x-7--3-x-x-x-3--5-x-x-x-5--7-x-x-x-7\5--|
|--5-x-x-x-5------------------------5-x-x-x-5\3--|

|-----------------------------------|
|-----------------------------------|
|-------------5-x-x-x-5--7-x-x-x-7--|
|--7-x-x-x-7--5-x-x-x-5--7-x-x-x-7--|
|--7-x-x-x-7--3-x-x-x-3--5-x-x-x-5--|
|--5-x-x-x-5------------------------|

 fill-in 2(accoustic)
|--------------------------------------|
|-----------1--0--------------------2--|
|--------2--------2--------------0-----|
|-----2--------------2--------2--------|
|--0--------------------0--3-----------|
|--------------------------------------|

|---------------------------------------------0--|
|-----------1--0------------------------------1--|
|--------2--------2--------------0--------0---2--|
|-----2--------------2--------2--------4------2--|
|--0--------------------0--3--------5------------|
|------------------------------------------------|

 Verse 2
|--------------------------|--------------------------|
|--------------------------|--------------------------|
|--------4-----5--4-----4--|--------4-----5--4-----4--|
|-----2-----2--------2-----|-----2-----2--------2-----|
|--0-----------------------|--3-----------------------|
|--------------------------|--------------------------|

|--------------------------|--------------------------|
|--------------------------|--------------------------|
|--------0-----5--0-----0--|--------4-----5~----------|
|-----4-----4--------4-----|-----2-----2--------------|
|--5-----------------------|--3-----------------------|
|--------------------------|--------------------------|
 Play this 4 times

 (chorus)

 (intro)

 Riff1 (Both guitars)
|--8-7-8-7-8-7-8-7----------5-8-7---|--8-7-8-7-8-7-8-7-----------5-12-10--|
|------------------5---5-5-6--------|------------------5---5-5-6----------|
|-----------------------------------|-------------------------------------|
|-----------------------------------|-------------------------------------|
|-----------------------------------|-------------------------------------|
|-----------------------------------|-------------------------------------|
 Play riff 1 twice

 Riff 2
|----------------------------------|------------------|------------------|
|----------------------------------|------------------|------------------|
|-9-x-x-x-x-x-x-x-x-x-x-x-x-x-x-x--|------------------|-9-x-x-x-x-x-x-x--|
|-9-x-x-x-x-x-x-x-x-x-x-x-x-x-x-x--|-10-x-x-x-x-x-x-x-|-9-x-x-x-x-x-x-x--|
|-7-x-x-x-x-x-x-x-x-x-x-x-x-x-x-x--|-10-x-x-x-x-x-x-x-|-5-x-x-x-x-x-x-x--|
|----------------------------------|--8-x-x-x-x-x-x-x-|------------------|

|----------------------------------|------------------|------------------|
|----------------------------------|------------------|------------------|
|-9-x-x-x-x-x-x-x-x-x-x-x-x-x-x-x--|------------------|-9-x-x-x-x-x-x-x--|
|-9-x-x-x-x-x-x-x-x-x-x-x-x-x-x-x--|-10-x-x-x-x-x-x-x-|-9-x-x-x-x-x-x-x--|
|-7-x-x-x-x-x-x-x-x-x-x-x-x-x-x-x--|-10-x-x-x-x-x-x-x-|-5-x-x-x-x-x-x-x--|
|----------------------------------|--8-x-x-x-x-x-x-x-|------------------|

|----------------------------------|------------------|------------------|
|----------------------------------|------------------|------------------|
|-9-x-x-x-x-x-x-x-x-x-x-x-x-x-x-x--|------------------|------------------|
|-9-x-x-x-x-x-x-x-x-x-x-x-x-x-x-x--|-10-x-x-x-x-x-x-x-|-5-x-x-x-x-x-x-x--|
|-7-x-x-x-x-x-x-x-x-x-x-x-x-x-x-x--|-10-x-x-x-x-x-x-x-|-5-x-x-x-x-x-x-x--|
|----------------------------------|--8-x-x-x-x-x-x-x-|-3-x-x-x-x-x-x-x--|

|----------------------------------|------------------|------------------|
|----------------------------------|------------------|------------------|
|-9-x-x-x-x-x-x-x-x-x-x-x-x-x-x-x--|------------------|-9-x-x-x-x-x-x-x--|
|-9-x-x-x-x-x-x-x-x-x-x-x-x-x-x-x--|-10-x-x-x-x-x-x-x-|-9-x-x-x-x-x-x-x--|
|-7-x-x-x-x-x-x-x-x-x-x-x-x-x-x-x--|-10-x-x-x-x-x-x-x-|-5-x-x-x-x-x-x-x--|
|----------------------------------|--8-x-x-x-x-x-x-x-|------------------|
 Play this to the solo

 SOLO
|----------------17-15-14----------|-19-17-------------|------------------|
|-15b17--15b17------------17-15-17-|-------20-19-20-19-|15-15-15-15-15----|
|----------------------------------|-------------------|------------------|
|----------------------------------|-------------------|------------------|
|----------------------------------|-------------------|------------------|
|----------------------------------|-------------------|------------------|

|-19-19-20-17-19-15-17-14-15-12-14p-12----12|-19-17--------------------|
|-------------------------------------h15---|-------20-19-20-19--------|
|-------------------------------------------|-------------------19-----|
|-------------------------------------------|----------------------19--|
|-------------------------------------------|--------------------------|
|-------------------------------------------|--------------------------|

|-------|-------------17--------------17-|-19-17--------------------|
|-------|-17-17-19-20-----17-17-19-20----|-------20-19-20-19--------|
|-------|--------------------------------|-------------------19-----|
|-17-16-|--------------------------------|----------------------19--|
|-------|--------------------------------|--------------------------|
|-------|--------------------------------|--------------------------|

|-------|-------------------------17-------------------|
|-17-16-|-17-17-19-20-19-17-19-20----20-19-20-19-17----|
|-------|-------------------------------------------19-|
|-------|----------------------------------------------|
|-------|----------------------------------------------|
|-------|----------------------------------------------|

|-17----------------|----------------------------------|
|----20-19-20-19-17-|----------------------------------|
|-------------------|-19-------------------------------|
|-------------------|----------------------------------|
|-------------------|----------------------------------|
|-------------------|----------------------------------|

(chorus 2x)

(outro same as intro)

11.THE UNBELIEVER

Riff 1:
E-----------------------------------|----------------------------|
B-----------------------------------|----------------------------|
G----------9-7---7-----9---7---7-9--|---------9-7---7-----9-7----|
D------7-9-----9-----9---9---9------|-----7-9-----9-----9-----9--|
A-----------------------------------|----------------------------|
E--0--------------------------------|-0-0------------------------|

E-----------------------------------|-----------------------------|
B-----------------------------------|---------------------10-8----|
G----------9-7---7-----9---7---7-9--|---------9-7---7----------9--|
D------7-9-----9-----9---9---9------|-----7-9-----9-----9---------|
A-----------------------------------|-----------------------------|
E--0-0------------------------------|-0-0-------------------------|

Riff 2: (Overtones)
E----------------------------|----------------------------------------|
B----------------------------|----------------------------------------|
G---------------7--7---5--5--|---5--5--5-5-5--7--7--7-----------------|
D--------7-7-7---------------|------------------------7--7--7---------|
A--7--7----------------------|----------------------------------7--7--|
E----------------------------|----------------------------------------|

Verse:
1.When you start to take a look within Do you feel at ease with what you see
3.Are you scared to look inside your mind Are you worried just at what you'll find
E----------------------------------|--------------------------------------|
B----------------------------------|--------------------------------------|
G----------------------------------|--------------------------------------|
D----------------------5--4--------|--------------------------------------|
A----7-----------------------------|----5--7------------3--5--2--3--------|
E----------------------------------|--------------------------------------|

Do you think you can have peace of mind and have self-belief or be satisfied
Do you really want to face the truth Does it matter now, what have you got to lose
E----------------------------------|--------------------------------------|
B----------------------------------|--------------------------------------|
G----------------------------------|--------------------------------------|
D----------------------5--4--------|--------------------------------------|
A----7-----------------------------|----5--7------------3--5--2--3--2-----|
E----------------------------------|--------------------------------------|

Do you think you even like yourself or really think you could be someone else
Try release the anger from within Forgive yourself a few immortal sins
E----------------------------------|--------------------------------------|
B----------------------------------|--------------------------------------|
G----------------------------------|--------------------------------------|
D----------------------5--4--------|--------------------------------------|
A----7-----------------------------|----5--7------------3--5--2--3--------|
E----------------------------------|--------------------------------------|

Is there something that you rather be Never thought you'd be, had the chance to see
Do you really care what people think Are you strong enough to release the guilt
E----------------------------------|--------------------------------------|
B----------------------------------|--------------------------------------|
G----------------------------------|--------------------------------------|
D----------------------5--4--------|--------------------------------------|
A----7-----------------------------|--------------5--7--3--5--2--3--2-----|
E----------------------------------|--------------------------------------|

Chorus:
     All    my    life
     All    my    life
E--------------|--------------|
B--0--0-0-0-0--|--0--0-0-0-0--|
G--2--2-2-2-2--|--4--4-4-4-4--|
D--2--2-2-2-2--|--5--5-5-5-5--|
A--0--0-0-0-0--|--0--0-0-0-0--|
E--------------|--------------|

     I've   run   away
     I've tried to hide away
E--------------|--------------|
B--0--0-0-0-0--|--0--0-0-0-0--|
G--4--4-4-4-4--|--2--2-2-2-2--|
D--5--5-5-5-5--|--2--2-2-2-2--|
A--0--0-0-0-0--|--0--0-0-0-0--|
E--------------|--------------|

Verse 2:
Feel the paranoia creeping in like a cancer eating at your skin
E----------------------------------|--------------------------------------|
B----------------------------------|--------------------------------------|
G----------------------------------|--------------------------------------|
D----------------------5--4--------|--------------------------------------|
A----7-----------------------------|----5--7------------3--5--2--3--------|
E----------------------------------|--------------------------------------|

Do you feel you've lost your self esteem and your self respect, what can you expect
E----------------------------------|--------------------------------------|
B----------------------------------|--------------------------------------|
G----------------------------------|--------------------------------------|
D----------------------5--4--------|--------------------------------------|
A----7-----------------------------|--------------5--7--3--5--2--3--2-----|
E----------------------------------|--------------------------------------|

Riff 3:
     All    my    life
     All    my    life
E--0--0-0-0-0--|--0--0-0-0-0--|
B--3--3-3-3-3--|--5--5-5-5-5--|
G--2--2-2-2-2--|--5--5-5-5-5--|
D--0--0-0-0-0--|--0--0-0-0-0--|
A--------------|--------------|
E--------------|--------------|

     I've   run   away
     I've tried to hide away
E--0--0-0-0-0--|--0--0-0-0-0--|
B--5--5-5-5-5--|--3--3-3-3-3--|
G--5--5-5-5-5--|--2--2-2-2-2--|
D--0--0-0-0-0--|--0--0-0-0-0--|
A--------------|--------------|
E--------------|--------------|

Riff 4:
E---------------|---------------------|
B---------------|---------------------|
G---------------|---------------------|
D------5-4------|--5---4-----5-4------|
A--7-7-----5-7--|--------5-7-----5-7--|
E---------------|---------------------|

E---------------|-------------------|
B---------------|-------------------|
G---------------|-------------------|
D------5-4------|--5---4-----7-5-4--|
A--7-7-----5-7--|--------5-7--------|
E---------------|-------------------|

Riff 5:
     All   my   life
E--------------------------------|
B--------------------------------|
G--------------------------------|
D--9-----9-----7-----7-----7--7--|
A--7-7-7-7-7-7-5-5-5-5-5-5-5--5--|
E--------------------------------|
     I've   run    astray
E--------------------------------|
B--------------------------------|
G--------------------------------|
D--5-----5-----7-----7-----7--7--|
A--3-3-3-3-3-3-5-5-5-5-5-5-5--5--|
E--------------------------------|

Riff 6:
E----------------------------------|-----------------|
B----------------------------------|-----------------|
G--------7-7-7-------9-9-9-----11--|--------7-7-7----|
D--5-5-5-5-5-5-7-7-7-7-7-7-9-9-9---|--5-5-5-5-5-5-7--|
A--3-3-3-------5-5-5-------7-7-----|--3-3-3-------5--|
E----------------------------------|-----------------|

E----------------------------------|-----------------|
B----------------------------------|-----------------|
G--------7-7-7-------9-9-9-----11--|-----------------|
D--5-5-5-5-5-5-7-7-7-7-7-7-9-9-9---|--5-5-5-7-7-7-9--|
A--3-3-3-------5-5-5-------7-7-----|--3-3-3-5-5-5-7--|
E----------------------------------|-----------------|

Riff 7:
E-------------------------------------|------------------------------------|
B-------------------------------------|----------5-----5----------7--------|
G----9-11-12-11-9-----9-11-12-11-9-7--|--5---5-7---7-5----7---7-9---9-7-9--|
D--9----------------9-----------------|----5----------------7--------------|
A-------------------------------------|------------------------------------|
E-------------------------------------|------------------------------------|

Solo-riff 1:
E-------------------------------|------------------------------|
B-------------------------------|------------------------------|
G-------------------------------|------------------------------|
D--9-----------9----------------|--5-------------------7-------|
A--7-7-7-7-7-7-7--7-7-7-7-7-7---|--3--3-3-3-3-3-5------5--5-5--|
E-------------------------------|---------------3--3-3---------|

Solo-riff 2
E------------------------------|-----------------------------|
B------------------------------|-----------------------------|
G------------------------------|-----------------------------|
D------------------------------|-----------------------------|
A--7-----------7---------------|--3------------5-------------|
E--5-5-5-5-5-5-5--5-5-5-5-5-5--|--1--1-1-1-1-1-3--3-3-3-3-3--|

Fill before second time of Riff 1:
E--------------------------------|
B--------------------------------|
G--------------------------------|
D--9-----9-----9-----9-----9--9--|
A--7-7-7-7-7-7-7-7-7-7-7-7-7--7--|
E--------------------------------|
comments
We did not receive enough feedback on this tab! Please rate:
print report bad tab
1 2 3 4 5
3 comments total.
0 reply
Francarus wrote on June 29 2006, 02:01 am

the 5 stars received are misleading. You need to go back and fill in all the blanks, if you're going to be so ambitious as to try to cover an entire album.

0 reply
Francarus wrote on June 29 2006, 02:07 am

sorry man, but a lot of your tabbing is just plain wrong...especially L.O.T. Flies, and Judgement...they are not even close!

0 reply
The Clansman2 wrote on June 9 2009, 04:22 pm

Lord of the flies actually goes like this:

I want to post or [tab]
guest
You may want to rate the tab now too:
select rating
Please do not post tabs as comments. Select "correction" instead!