Oops, an error
Loading. Please wait.

Black Diamonds Tab

2,622 views 33 this week
no commentswrite comment
1 2 3 4 5
excellent!
x 4
add to favorites launch autoscroll
font size
0
reset
Autoscroll
+/-
esc
set tempo
stop
Contributor
Difficulty
intermediate
WARNING: You are trying to view
                                    content from Ultimate-Guitar.com
                                    in an unauthorized application,
                                    which is prohibited.

                                    Please use an official Ultimate
                                    Guitar Tabs application for iPhone,
                                    iPad or Android to access legitimate
                                    chords, guitar, bass, and drum tabs
                                    from Ultimate-Guitar.com database.

                                    Type "ultimate guitar tabs" in Apple
                                    App Store's or Android Market's
                                    search to find the application.
----------------------------------------------------------------------------------------------------
                                         ISSUES - BLACK DIAMONDS       
----------------------------------------------------------------------------------------------------

Band: ISSUES
Album: Black Diamonds


Tracklist:

1. Black Diamonds (Ft. Scout)
2. King Of Amarillo
3. The Worst Of Them
4. Princeton Ave
5. Love, Sex, Riot (Ft. Fronz)
6. Her Monologue


Tabbed by: Matthew Langston
E-mail: mdl4208@aol.com


Tunings: Drop A# (A# F A# D# G C)
                 (Bb F Bb Eb G C)

         Drop B (B F# B E G# C#)
                (B Gb B E Ab Db)


>"The Worst Of Them" is the only song played with Drop B tuning.



> Props to ISSUES for making a dope debut album/EP.
> Each song in this tab was completely tabbed out by me. Enjoy.





----------------------------------------------------------------------------------------------------
                                   1. "Black Diamonds (Ft. Scout)"       
----------------------------------------------------------------------------------------------------



"We keep the cash on deck
 Swerved out black diamonds..."

> There is no guitar in this song.



[END OF SONG]








----------------------------------------------------------------------------------------------------
                                       2. "King of Amarillo"       
----------------------------------------------------------------------------------------------------

Tuning: Drop A# (A# F A# D# G C)
                (Bb F Bb Eb G C)



[0:00 - 0:15]

C |----------------------------------------------------------|
G |----------------------------------------------------------|
D#|----------------------------------------------------------|  v = vibrato
A#|----------------------------------------------------------|  as said in key
F |------------------------00000-----------00000-------0-00--|  at bottom
A#|--1br-0---1br-0--1br-0--00000-12v-0~-0~-00000-1br-0-0-00--|
                           .....           .....       . ..

C |----------------------------------------------------------|
G |----------------------------------------------------------|
D#|----------------------------------------------------------|
A#|----------------------------------------------------------|
F |------------------------00000-----------00000-------0-00--|
A#|--1br-0---1br-0--1br-0--00000-12v-0~-0~-00000-1br-0-0-00--|
                           .....           .....       . ..



[0:15 - 0:34]

C |---------------------------------|-------------------------------|
G |---------------------------------|-------------------------------|
D#|------2--------------------------|------2------------------------|
A#|------3--------------------------|------3------------------------|
F |--000-5-00------00-0--0-00-0-----|--000-5-00------0------4-------|
A#|--000---00-0~-0-00-0--0-00---1b--|--000---00-0~-0---1b-0---1b-0--|
     ...   ..      .. .  . ..          ...   ..

C |---------------------------------|-------------------------------|
G |---------------------------------|-------------------------------|
D#|------2--------------------------|------2------------------------|
A#|------3--------------------------|------3------------------------|
F |--000-5-00------00-0--0-00-0-----|--000-5-00------0------4-------|
A#|--000---00-0~-0-00-0--0-00---1b--|--000---00-0~-0---1b-0---1b-0--|
     ...   ..      .. .  . ..          ...   ..

C |------------------------------------------------------|
G |------------------------------------------------------|
D#|------------------------------------------------------|
A#|------------------------------------------------------|
F |--0~-0~---0-0-0-0--0-0---0-000--0-0--00000-0----------|
A#|--0~-0~---0-0-0-0--0-0---0-000--0-0--00000---1b-0-00--|
     .  .    . . . .  . .   . ...  . .  .....        ..



[0:35 - 1:00]

  | Guitar 1 (x2)
C |-----------------------------------|
G |-----------------------------------|
D#|-----------------------------------|
A#|--0-0-0-0-0-0-0-0-0-0-0-0-0-3-3-3--|
F |--0-0-0-0-0-0-0-0-0-0-0-0-0-3-3-3--|
A#|--0-0-0-0-0-0-0-0-0-0-0-0-0-3-3-3--|
  |
C |-----------------------------------|
G |-----------------------------------|
D#|-----------------------------------|
A#|--5-5-5-5-5-5-5-5-5-5-5-5-5-7-7-7--|
F |--5-5-5-5-5-5-5-5-5-5-5-5-5-7-7-7--|
A#|--5-5-5-5-5-5-5-5-5-5-5-5-5-7-7-7--|
  |
C |-----------------------------------|
G |-----------------------------------|
D#|-----------------------------------|
A#|--8-8-8-8-8-8-8-8-8-8-8-8-8-8-8-8--|
F |--8-8-8-8-8-8-8-8-8-8-8-8-8-8-8-8--|
A#|--8-8-8-8-8-8-8-8-8-8-8-8-8-8-8-8--|
  |
C |-------------------------------------|---1st---|---2nd---|
G |-------------------------------------|---Time--|---Time--|
D#|-------------------------------------|---------|---------|
A#|--10-10-10-10-10-10-10-10-7-7-7-7-7--|---------|--7-7-7--|
F |--10-10-10-10-10-10-10-10-7-7-7-7-7--|--0-0-0--|--7-7-7--|
A#|--10-10-10-10-10-10-10-10-7-7-7-7-7--|--0-0-0--|--7-7-7--|
                                           . . .


  | Guitar 2 (x2)
C |---------------------------------------------------|
G |---------------------------------------------------|
D#|--10-10-10-10-10-10-14-14-12-12-14-14-14-10-10-10--|
A#|--x--x--x--x--x--x--x--x--x--x--x--x--x--x--x--x---|
F |--8--8--8--8--8--8--12-12-10-10-12-10-10-8--8--8---|
A#|---------------------------------------------------|
  |
C |---------------------------------------------------|
G |---------------------------------------------------|
D#|--17-14-14-17-14-14-14-14-14/15-15-15-15/17-14-14--|
A#|--x--x--x--x--x--x--x--x--x--x--x--x--x--x--x--x---|
F |--15-12-12-15-12-12-12-12-12/13-13-13-13/15-12-12--|
A#|---------------------------------------------------|
  |
C |---------------------------------------------------|
G |---------------------------------------------------|
D#|--14\12-12-12-12-12-12-12-12/14-14-14-14-14-14-14--|
A#|--x--x--x--x--x--x--x--x--x--x--x--x--x--x--x--x---|
F |--12\10-10-10-10-10-10-10-10/12-12-12-12-12-12-12--|
A#|---------------------------------------------------|
  |
C |---------------------------------------------------|
G |---------------------------------------------------|
D#|--10-10-10-10-10-10-10-10-9--9--9--9--9--9--9--9---|
A#|--x--x--x--x--x--x--x--x--x--x--x--x--x--x--x--x---|
F |--8--8--8--8--8--8--8--8--7--7--7--7--7--7--7--7---|
A#|---------------------------------------------------|



[1:00 - 1:13]

C |-----------------------------------|--------------------------------|
G |-----------------------------------|--------------------------------|
D#|-----------------------------------|--------------------------------|
A#|---(elevens)-----------------------|--------------------------------|
F |--------------------0-------1------|---------------0-0-0-0-0-0-0-0--|
A#|--12-1111--0-11-0~----1-0-0---1-0--|--1br-0--1br-0-1-1-1-1-1-1-1-1--|
                                                      . . . . . . . .

C |-----------------------------------|--------------------------------|
G |-----------------------------------|--------------------------------|
D#|-----------------------------------|--------------------------------|
A#|---(elevens)-----------------------|--------------------------------|
F |--------------------0-------1------|---------------0-0-0-0-0-0-0-0--|
A#|--12-1111--0-11-0~----1-0-0---1-0--|--1br-0--1br-0-1-1-1-1-1-1-1-1--|
                                                      . . . . . . . .


[1:13 - 1:21]

"TAKE THAT!"

C |---------------------------------|-------------------------------|
G |---------------------------------|-------------------------------|
D#|------2--------------------------|------2------------------------|
A#|------3--------------------------|------3------------------------|
F |--000-5-00------00-0--0-00-0-----|--000-5-00------0------4-------|
A#|--000---00-0~-0-00-0--0-00---1b--|--000---00-0~-0---1b-0---1b-0--|
     ...   ..      .. .  . ..          ...   ..



[1:21 - 1:34]

C |------------------------------------------------------------------|
G |------------------------------------------------------------------|
D#|------------------------10101010\---------------------------------|
A#|------------------------7-7-7-7\---------8-8-8-8-8-8-8-8-8-8-8-8--|
F |--8\--0~---5-0----------8-8-8-8\---------3-3-3-5-5-5-5-5-5-5-5-5--|
A#|--8\--0~-------0~-000~--8-8-8-8\--0000~--3-3-3-5-5-5-5-5-5-5-5-5--|

C |--------------------------------------------------------------------------|
G |--------------------------------------------------------------------------|
D#|------------------------10101010\--------10-10-10-10-9-9-9-9-9/10-10-10~--|
A#|------------------------7-7-7-7\---------x--x--x--x--x-x-x-x-x-x--x--x----|
F |--8\--0~---5-0----------8-8-8-8\---------8--8--8--8--7-7-7-7-7/8--8--8~---|
A#|--8\--0~-------0~-000~--8-8-8-8\--0000~-----------------------------------|



[1:34 - 1:59]

  | Guitar 1 (x2)
C |-----------------------------------|
G |-----------------------------------|
D#|-----------------------------------| > Skip first two strums
A#|--0-0-0-0-0-0-0-0-0-0-0-0-0-3-3-3--|   of this part on the
F |--0-0-0-0-0-0-0-0-0-0-0-0-0-3-3-3--|   first play through
A#|--0-0-0-0-0-0-0-0-0-0-0-0-0-3-3-3--|
  |
C |-----------------------------------|
G |-----------------------------------|
D#|-----------------------------------|
A#|--5-5-5-5-5-5-5-5-5-5-5-5-5-7-7-7--|
F |--5-5-5-5-5-5-5-5-5-5-5-5-5-7-7-7--|
A#|--5-5-5-5-5-5-5-5-5-5-5-5-5-7-7-7--|
  |
C |-----------------------------------|
G |-----------------------------------|
D#|-----------------------------------|
A#|--8-8-8-8-8-8-8-8-8-8-8-8-8-8-8-8--|
F |--8-8-8-8-8-8-8-8-8-8-8-8-8-8-8-8--|
A#|--8-8-8-8-8-8-8-8-8-8-8-8-8-8-8-8--|
  |
C |-------------------------------------|---1st---|---2nd---|
G |-------------------------------------|---Time--|---Time--|
D#|-------------------------------------|---------|---------|
A#|--10-10-10-10-10-10-10-10-7-7-7-7-7--|---------|--7-7-7--|
F |--10-10-10-10-10-10-10-10-7-7-7-7-7--|--0-0-0--|--7-7-7--|
A#|--10-10-10-10-10-10-10-10-7-7-7-7-7--|--0-0-0--|--7-7-7--|
                                           . . .


  | Guitar 2 (x2)
C |---------------------------------------------------|
G |---------------------------------------------------|
D#|--10-10-10-10-10-10-14-14-12-12-14-14-14-10-10-10--| > Skip first two strums
A#|--x--x--x--x--x--x--x--x--x--x--x--x--x--x--x--x---|   of this part on
F |--8--8--8--8--8--8--12-12-10-10-12-10-10-8--8--8---|   first play through
A#|---------------------------------------------------|
  |
C |---------------------------------------------------|
G |---------------------------------------------------|
D#|--17-14-14-17-14-14-14-14-14/15-15-15-15/17-14-14--|
A#|--x--x--x--x--x--x--x--x--x--x--x--x--x--x--x--x---|
F |--15-12-12-15-12-12-12-12-12/13-13-13-13/15-12-12--|
A#|---------------------------------------------------|
  |
C |---------------------------------------------------|
G |---------------------------------------------------|
D#|--14\12-12-12-12-12-12-12-12/14-14-14-14-14-14-14--|
A#|--x--x--x--x--x--x--x--x--x--x--x--x--x--x--x--x---|
F |--12\10-10-10-10-10-10-10-10/12-12-12-12-12-12-12--|
A#|---------------------------------------------------|
  |
C |---------------------------------------------------|
G |---------------------------------------------------|
D#|--10-10-10-10-10-10-10-10-9--9--9--9--9--9--9--9---|
A#|--x--x--x--x--x--x--x--x--x--x--x--x--x--x--x--x---|
F |--8--8--8--8--8--8--8--8--7--7--7--7--7--7--7--7---|
A#|---------------------------------------------------|



[2:00 - 2:28]

Tyler singing over techno-ish part. (No guitar)



[2:29 - 2:47]

C |---------------------------------------|---------------------------------------|
G |---------------------------------------|---------------------------------------|
D#|---------------------------------------|---------------------------------------|
A#|--00~--000-0-----0-0--0-0--------------|-------000-0-----0-0--0-0--------------|
F |--00~--000-0-----0-0--0-0--------------|-------000-0-----0-0--0-0--------------|
A#|--11~--111-1-----1-1--1-1--0-00--0~00--|--1br--111-1-----1-1--1-1--0-00--0~00--|
     ..   ... .     . .  . .                      ... .     . .  . .

C |------------------------------------------------------------|
G |------------------------------------------------------------|
D#|------------------------------------------------------------|
A#|--0~-0---000-0-0~--0~--0-0-0~--0-0------7-----------x-x-3\--|
F |--0~-0---000-0-0~--0~--0-0-0~--0-0--------8---5b6r5-x-x-3\--|
A#|--1~-1---111-1-1~--1~--1-1-1~--1-1----0-----0-------x-x-3\--|
     .  .   ... . .   .   . . .   . .    .     .



[2:48 - 3:13]

  | Guitar 1 (x2)
C |-----------------------------------|
G |-----------------------------------| > Don't play this part
D#|-----------------------------------|   on first playthrough.
A#|--0-0-0-0-0-0-0-0-0-0-0-0-0-3-3-3--|
F |--0-0-0-0-0-0-0-0-0-0-0-0-0-3-3-3--|
A#|--0-0-0-0-0-0-0-0-0-0-0-0-0-3-3-3--|
  |
C |-----------------------------------|
G |-----------------------------------|
D#|-----------------------------------|
A#|--5-5-5-5-5-5-5-5-5-5-5-5-5-7-7-7--|
F |--5-5-5-5-5-5-5-5-5-5-5-5-5-7-7-7--|
A#|--5-5-5-5-5-5-5-5-5-5-5-5-5-7-7-7--|
  |
C |-----------------------------------|
G |-----------------------------------|
D#|-----------------------------------|
A#|--8-8-8-8-8-8-8-8-8-8-8-8-8-8-8-8--|
F |--8-8-8-8-8-8-8-8-8-8-8-8-8-8-8-8--|
A#|--8-8-8-8-8-8-8-8-8-8-8-8-8-8-8-8--|
  |
C |-------------------------------------|---1st---|---2nd---|
G |-------------------------------------|---Time--|---Time--|
D#|-------------------------------------|---------|---------|
A#|--10-10-10-10-10-10-10-10-7-7-7-7-7--|---------|--7-7-7--|
F |--10-10-10-10-10-10-10-10-7-7-7-7-7--|--0-0-0--|--7-7-7--|
A#|--10-10-10-10-10-10-10-10-7-7-7-7-7--|--0-0-0--|--7-7-7--|
                                           . . .


  | Guitar 2 (x2)
C |---------------------------------------------------|
G |---------------------------------------------------|
D#|--10-10-10-10-10-10-14-14-12-12-14-14-14-10-10-10--|
A#|--x--x--x--x--x--x--x--x--x--x--x--x--x--x--x--x---|
F |--8--8--8--8--8--8--12-12-10-10-12-10-10-8--8--8---|
A#|---------------------------------------------------|
  |
C |---------------------------------------------------|
G |---------------------------------------------------|
D#|--17-14-14-17-14-14-14-14-14/15-15-15-15/17-14-14--|
A#|--x--x--x--x--x--x--x--x--x--x--x--x--x--x--x--x---|
F |--15-12-12-15-12-12-12-12-12/13-13-13-13/15-12-12--|
A#|---------------------------------------------------|
  |
C |---------------------------------------------------|
G |---------------------------------------------------|
D#|--14\12-12-12-12-12-12-12-12/14-14-14-14-14-14-14--|
A#|--x--x--x--x--x--x--x--x--x--x--x--x--x--x--x--x---|
F |--12\10-10-10-10-10-10-10-10/12-12-12-12-12-12-12--|
A#|---------------------------------------------------|
  |
C |---------------------------------------------------|
G |---------------------------------------------------|
D#|--10-10-10-10-10-10-10-10-9--9--9--9--9--9--9--9---|
A#|--x--x--x--x--x--x--x--x--x--x--x--x--x--x--x--x---|
F |--8--8--8--8--8--8--8--8--7--7--7--7--7--7--7--7---|
A#|---------------------------------------------------|



[3:13 - 3:29]

C |----------------------------------------------------------|
G |----------------------------------------------------------|
D#|----------------------------------------------------------|
A#|----------------------------------------------------------|
F |------------------------00000-----------00000-------0-00--|
A#|--1br-0---1br-0--1br-0--00000-12v-0~-0~-00000-1br-0-0-00--|
                           .....           .....       . ..

C |----------------------------------------------------------|
G |----------------------------------------------------------|
D#|----------------------------------------------------------|
A#|----------------------------------------------------------|
F |------------------------00000-----------00000-------0-00--|
A#|--1br-0---1br-0--1br-0--00000-12v-0~-0~-00000-1br-0-0-00--|
                           .....           .....       . ..



[END OF SONG]








----------------------------------------------------------------------------------------------------
                                        3. "The Worst Of Them"       
----------------------------------------------------------------------------------------------------

Tuning: Drop B (B F# B E G# C#)
               (B Gb B E Ab Db)



[0:00 - 0:23]

C#|-----------------------------------------------------------------------|
G#|-----------------------------------------------------------------------|
E |-----------------------------------------------------------------------|
B |--8-8-8-8-8-8-8-8-8-8-8-8-10-10-10-10-0-0-0-0-0-0-0-0-0-0-0-0-3-3-3-3--|
F#|--8-8-8-8-8-8-8-8-8-8-8-8-10-10-10-10-0-0-0-0-0-0-0-0-0-0-0-0-3-3-3-3--|
B |--8-8-8-8-8-8-8-8-8-8-8-8-10-10-10-10-0-0-0-0-0-0-0-0-0-0-0-0-3-3-3-3--|

C#|-------------------------------------------------------|-----------|-----------|
G#|-------------------------------------------------------|--Guitar1--|--Guitar2--|
E |-------------------------------------------------------|-----------|-----------|
B |--5-5-5-5-5-5-5-5-5-5-5-5-7-7-7-7-0-0-0-0-0-0-0-0-3-3--|-----------|--7-5-7-5--|
F#|--5-5-5-5-5-5-5-5-5-5-5-5-7-7-7-7-0-0-0-0-0-0-0-0-3-3--|-----------|-----------|
B |--5-5-5-5-5-5-5-5-5-5-5-5-7-7-7-7-0-0-0-0-0-0-0-0-3-3--|--7-5-7-5--|-----------|

C#|-------------------------------------------------------------------|
G#|-------------------------------------------------------------------|
E |--3-3-3-3-3-3-3-3-3-3-3-3-3/5-5-5-5-5-5-5-5-5-5-5-5-5-5-5-5-5-5-5--|
B |--3-3-3-3-3-3-3-3-3-3-3-3-3/5-5-5-3-3-3-3-3-3-3-3-3-3-3-3-3-3-3-3--|
F#|--1-1-1-1-1-1-1-1-1-1-1-1-1/3-3-3-5-5-5-5-5-5-5-5-5-5-5-5-5-5-5-5--|
B |-------------------------------------------------------------------|

C#|--------------------------------------------------------------------|
G#|--------------------------------------------------------------------|
E |--------------------------------------------------------------------|
B |--------------------------------------------------------------------|
F#|--------------------------------------------------------------------|
B |--0-0-0-0-0-12~--0-0-0-0-12~--8-8/10-10\5-5-5-5~--5~--5-5-7~-5~-3~--|



[0:24 - 0:56]

C#|----------------------------------|------------------------------------|
G#|----------------------------------|------------------------------------|
E |----------------------------------|------------------------------------|
B |----------------------------------|------------------------------------|
F#|--0-0-0---0------0-0-0-000-0---0--|--0-0-0---0------0-0-0-000-0-000-0--|
B |--0-0-0---0------0-0-0-000-0---0--|--0-0-0---0------0-0-0-000-0-000-0--|
     . . .   .      . . . ... .   .     . . .   .      . . . ... . ... .

C#|--------------------------------|---------------------------------|
G#|--------------------------------|---------------------------------|
E |--------------------------------|---------------------------------|
B |--------------3~----------------|-----------------5~-7~--1-1-1-1--|
F#|--0h1-----------7~----0~--8-----|----3p1--0~-------------1-1-1-1--|
B |------0-0~--0-------0-------5~--|--0----------0-0--------1-1-1-1--|
         .     .       .              .          . .        . . . .

C#|----------------------------------|
G#|----------------------------------|
E |----------------------------------|
B |----------------------------------|
F#|--0-0-0---0------0-0-0-000-0---0--|
B |--0-0-0---0------0-0-0-000-0---0--|
     . . .   .      . . . ... .   .

C#|-------------------------------------------------------------------|
G#|-------------------------------------------------------------------|
E |-------------------------------------------------------------------|
B |--------------3---3---3---3---3---5---5---5---5---8---8---8---8----|
F#|--0h1-----------7---7---7---7---7---7---7---7---7---7---7---7---7--|
B |------0-0~--0------------------------------------------------------|
         .     .

C#|-------------------------------|
G#|-------------------------------|
E |-------------------------------|
B |-----10~---7~-8~-7~------------|
F#|---------8----------0-0-0---0--|
B |--8~----------------0-0-0---0--|
                       . . .   .



[0:57 - 1:18]

C#|-----------------------------------------------------------------------|
G#|-----------------------------------------------------------------------|
E |-----------------------------------------------------------------------|
B |--8-8-8-8-8-8-8-8-8-8-8-8-10-10-10-10-0-0-0-0-0-0-0-0-0-0-0-0-3-3-3-3--|
F#|--8-8-8-8-8-8-8-8-8-8-8-8-10-10-10-10-0-0-0-0-0-0-0-0-0-0-0-0-3-3-3-3--|
B |--8-8-8-8-8-8-8-8-8-8-8-8-10-10-10-10-0-0-0-0-0-0-0-0-0-0-0-0-3-3-3-3--|

C#|-------------------------------------------------------|-----------|-----------|
G#|-------------------------------------------------------|--Guitar1--|--Guitar2--|
E |-------------------------------------------------------|-----------|-----------|
B |--5-5-5-5-5-5-5-5-5-5-5-5-7-7-7-7-0-0-0-0-0-0-0-0-3-3--|-----------|--7-5-7-5--|
F#|--5-5-5-5-5-5-5-5-5-5-5-5-7-7-7-7-0-0-0-0-0-0-0-0-3-3--|-----------|-----------|
B |--5-5-5-5-5-5-5-5-5-5-5-5-7-7-7-7-0-0-0-0-0-0-0-0-3-3--|--7-5-7-5--|-----------|

C#|-------------------------------------------------------------------|
G#|-------------------------------------------------------------------|
E |--3-3-3-3-3-3-3-3-3-3-3-3-3/5-5-5-5-5-5-5-5-5-5-5-5-5-5-5-5-5-5-5--|
B |--3-3-3-3-3-3-3-3-3-3-3-3-3/5-5-5-3-3-3-3-3-3-3-3-3-3-3-3-3-3-3-3--|
F#|--1-1-1-1-1-1-1-1-1-1-1-1-1/3-3-3-5-5-5-5-5-5-5-5-5-5-5-5-5-5-5-5--|
B |-------------------------------------------------------------------|

C#|--------------------------------------------------------------------|
G#|--------------------------------------------------------------------|
E |--------------------------------------------------------------------|
B |--------------------------------------------------------------------|
F#|--------------------------------------------------------------------|
B |--0-0-0-0-0-12~--0-0-0-0-12~--8-8/10-10\5-5-5-5~--5~--5-5-7~-5~-3~--|



[1:18 - 1:51]

C#|----------------------------------|------------------------------------|---------|
G#|----------------------------------|------------------------------------|---------|
E |----------------------------------|------------------------------------|---------|
B |----------------------------------|------------------------------------|---------|
F#|--0-0-0---0------0-0-0-000-0---0--|--0-0-0---0------0-0-0-000-0-000-0--|--0-12\--|
B |--0-0-0---0------0-0-0-000-0---0--|--0-0-0---0------0-0-0-000-0-000-0--|--0-12\--|
     . . .   .      . . . ... .   .     . . .   .      . . . ... . ... .     .

C#|--------------------------------|---------------------------------|
G#|--------------------------------|---------------------------------|
E |--------------------------------|---------------------------------|
B |--------------3~----------------|-----------------5~-7~--1-1-1-1--|
F#|--0h1-----------7~----0~--8-----|----3p1--0~-------------1-1-1-1--|
B |------0-0~--0-------0-------5~--|--0----------0-0--------1-1-1-1--|
         .     .       .              .          . .        . . . .

C#|----------------------------------|
G#|----------------------------------|
E |----------------------------------|
B |----------------------------------|
F#|--0-0-0---0------0-0-0-000-0---0--|
B |--0-0-0---0------0-0-0-000-0---0--|
     . . .   .      . . . ... .   .

C#|-------------------------------------------------------------------|
G#|-------------------------------------------------------------------|
E |-------------------------------------------------------------------|
B |--------------3---3---3---3---3---5---5---5---5---8---8---8---8----|
F#|--0h1-----------7---7---7---7---7---7---7---7---7---7---7---7---7--|
B |------0-0~--0------------------------------------------------------|
         .     .

C#|-------------------------------|
G#|-------------------------------|
E |-------------------------------|
B |-----10~---7~-8~-7~------------|
F#|---------8----------0-0-0---0--|
B |--8~----------------0-0-0---0--|
                       . . .   .



[1:51 - 2:13]

C#|-----------------------------------------------------------------------|
G#|-----------------------------------------------------------------------|
E |-----------------------------------------------------------------------|
B |--8-8-8-8-8-8-8-8-8-8-8-8-10-10-10-10-0-0-0-0-0-0-0-0-0-0-0-0-3-3-3-3--|
F#|--8-8-8-8-8-8-8-8-8-8-8-8-10-10-10-10-0-0-0-0-0-0-0-0-0-0-0-0-3-3-3-3--|
B |--8-8-8-8-8-8-8-8-8-8-8-8-10-10-10-10-0-0-0-0-0-0-0-0-0-0-0-0-3-3-3-3--|

C#|-------------------------------------------------------|-----------|-----------|
G#|-------------------------------------------------------|--Guitar1--|--Guitar2--|
E |-------------------------------------------------------|-----------|-----------|
B |--5-5-5-5-5-5-5-5-5-5-5-5-7-7-7-7-0-0-0-0-0-0-0-0-3-3--|-----------|--7-5-7-5--|
F#|--5-5-5-5-5-5-5-5-5-5-5-5-7-7-7-7-0-0-0-0-0-0-0-0-3-3--|-----------|-----------|
B |--5-5-5-5-5-5-5-5-5-5-5-5-7-7-7-7-0-0-0-0-0-0-0-0-3-3--|--7-5-7-5--|-----------|

C#|-------------------------------------------------------------------|
G#|-------------------------------------------------------------------|
E |--3-3-3-3-3-3-3-3-3-3-3-3-3/5-5-5-5-5-5-5-5-5-5-5-5-5-5-5-5-5-5-5--|
B |--3-3-3-3-3-3-3-3-3-3-3-3-3/5-5-5-3-3-3-3-3-3-3-3-3-3-3-3-3-3-3-3--|
F#|--1-1-1-1-1-1-1-1-1-1-1-1-1/3-3-3-5-5-5-5-5-5-5-5-5-5-5-5-5-5-5-5--|
B |-------------------------------------------------------------------|

C#|--------------------------------------------------------------------|
G#|--------------------------------------------------------------------|
E |--------------------------------------------------------------------|
B |--------------------------------------------------------------------|
F#|--------------------------------------------------------------------|
B |--0-0-0-0-0-12~--0-0-0-0-12~--8-8/10-10\5-5-5-5~--5~--5-5-7~-5~-3~--|



[2:13 - 2:23]

C#|-------------------------------------------------------------------|
G#|-------------------------------------------------------------------|
E |-------------------------------------------------------------------|
B |-------------------------------------------------------------------|
F#|--000-0-000-0--0-0--0---0-0-------000-0-0-0-0~--8-------------7h8--|
B |--000-0-000-0--0-0--0---0-0-------000-0-0-0-0~----7-0-7h8-0-8------|
     ... . ... .  . .  .   . .       ... . . . .       .     .

C#|-------------------------------------------------------------|
G#|-------------------------------------------------------------|
E |-------------------------------------------------------------|
B |-------------------------------------------------------------|
F#|--000-0-000-0--0-0--0---0-0-------000-0-0-0-0~--8---------0--|
B |--000-0-000-0--0-0--0---0-0-------000-0-0-0-0~----7-0-7h8-0--|
     ... . ... .  . .  .   . .       ... . . . .       .     .



[2:24 - 2:51]

C#|---------------------------------------------------------------|
G#|---------------------------------------------------------------|
E |---------------------------------------------------------------|
B |---------------------------------------------------------------|
F#|---------------------------------------------------------------|
B |--8-8-8-8--8--8-8--8--10-10-10-10-0-0-0-0--0-0-0--3-3--3-3--3--|

C#|---------------------------------------------------------------|
G#|---------------------------------------------------------------|
E |---------------------------------------------------------------|
B |---------------------------------------------------------------|
F#|---------------------------------------------------------------|
B |--8-8-8-8--8--8-8--8--10-10-10-10-0-0-0-0--0-0-0--3-3--3-3--3--|

C#|--------------------------------------------------------------|
G#|--------------------------------------------------------------|
E |--------------------------------------------------------------|
B |----------------7-------------------------------------10~-7~--|
F#|-------------------3--5-5-------5-----------5------8~---------|
B |--888-8-8--8-8------------0000----0-0-0---0---0--7~-----------|
                             ....            .

C#|-----------------------------------------------------------------------------------|
G#|-----------------------------------------------------------------------------------|
E |-----------------------------------------------------------------------------------|
B |--------------------------------------------------3-3-3-3-3-3-3-3-3-3-3-3-3-3-3-3--|
F#|--12-12-12-12-12-12-12-12-12-12-12-12-12-12-12-12-3-3-3-3-3-3-3-3-3-3-3-3-3-3-3-3--|
B |--8--8--8--8--8--8--8--8--8--8--8--8--10-10-10-10-3-3-3-3-3-3-3-3-3-3-3-3-3-3-3-3--|

C#|-------------------------------------------------------------|
G#|-------------------------------------------------------------|
E |-------------------------------------------------------------|
B |----------------7--------------------------------------------|
F#|-------------------3--5-5-------5-----------5----------------|
B |--888-8-8--8-8------------0000----0-0-0---0---0--0-7~-5~-3~--|
                             ....            .



[2:51 - 3:36]

C#|-----------------------------------------------------------------------|
G#|-----------------------------------------------------------------------|
E |-----------------------------------------------------------------------|
B |--8-8-8-8-8-8-8-8-8-8-8-8-10-10-10-10-0-0-0-0-0-0-0-0-0-0-0-0-3-3-3-3--|
F#|--8-8-8-8-8-8-8-8-8-8-8-8-10-10-10-10-0-0-0-0-0-0-0-0-0-0-0-0-3-3-3-3--|
B |--8-8-8-8-8-8-8-8-8-8-8-8-10-10-10-10-0-0-0-0-0-0-0-0-0-0-0-0-3-3-3-3--|

C#|-------------------------------------------------------|-----------|-----------|
G#|-------------------------------------------------------|--Guitar1--|--Guitar2--|
E |-------------------------------------------------------|-----------|-----------|
B |--5-5-5-5-5-5-5-5-5-5-5-5-7-7-7-7-0-0-0-0-0-0-0-0-3-3--|-----------|--7-5-7-5--|
F#|--5-5-5-5-5-5-5-5-5-5-5-5-7-7-7-7-0-0-0-0-0-0-0-0-3-3--|-----------|-----------|
B |--5-5-5-5-5-5-5-5-5-5-5-5-7-7-7-7-0-0-0-0-0-0-0-0-3-3--|--7-5-7-5--|-----------|

C#|-------------------------------------------------------------------|
G#|-------------------------------------------------------------------|
E |--3-3-3-3-3-3-3-3-3-3-3-3-3/5-5-5-5-5-5-5-5-5-5-5-5-5-5-5-5-5-5-5--|
B |--3-3-3-3-3-3-3-3-3-3-3-3-3/5-5-5-3-3-3-3-3-3-3-3-3-3-3-3-3-3-3-3--|
F#|--1-1-1-1-1-1-1-1-1-1-1-1-1/3-3-3-5-5-5-5-5-5-5-5-5-5-5-5-5-5-5-5--|
B |-------------------------------------------------------------------|

C#|----------------------------------------------------------------------|
G#|----------------------------------------------------------------------|
E |----------------------------------------------------------------------|
B |----------------------------------------------------------------------|
F#|----------------------------------------------------------------------|
B |--0-0-0-0-0-12~--0-0-0-0-12~--8-8/10-10\5-5-5-5~--5~--5~--7~--5~--3~--|



"Turn around, it'll be too late..."



[END OF SONG]








----------------------------------------------------------------------------------------------------
                                         4. "Princeton Ave"       
----------------------------------------------------------------------------------------------------

Tuning: Drop A# (A# F A# D# G C)
                (Bb F Bb Eb G C)



[0:00 - 0:30]

Piano intro.



[0:31 - 0:58]

C |---------------------------------------------------------------------------|
G |---------------------------------------------------------------------------|
D#|---------------------------------------------------------------------------|
A#|------------------------------10-----10--10--10--10--10----7--7-----7------|
F |--12-----------------13-12-------8-888---8---8---8---8---555--5-------8----|
A#|------0-10-0~--000-0-------00------888---8---8---8---8---555--5--00-----0--|
         .                    .       ..                    ..      .

C |---------------------------------------------------------------------------|
G |---------------------------------------------------------------------------|
D#|---------------------------------------------------------------------------|
A#|------------------------------10-----10--10--10--10--10----7--7-----7------|
F |--12-----------------13-12-------8-888---8---8---8---8---555--5-------8----|
A#|------0-10-0~--000-0-------00------888---8---8---8---8---555--5--00-----0--|
         .                    .       ..                    ..      .

C |---------------------------------------------------------------------------|
G |---------------------------------------------------------------------------|
D#|---------------------------------------------------------------------------|
A#|------------------------------10-----10--10--10--10--10----7--7-----7------|
F |--12-----------------13-12-------8-888---8---8---8---8---555--5-------8----|
A#|------0-10-0~--000-0-------00------888---8---8---8---8---555--5--00-----0--|
         .                    .       ..                    ..      .

C |---------------------------------------------------------------------------|
G |---------------------------------------------------------------------------|
D#|---------------------------------------------------------------------------|
A#|------------------------------10-----10--10--10--10--10----7--7-----7------|
F |--12-----------------13-12-------8-888---8---8---8---8---555--5-------8----|
A#|------0-10-0~--000-0-------00------888---8---8---8---8---555--5--00-----0--|
         .                    .       ..                    ..      .



[0:58 - 1:26]

C |-------------------------------------|-------------------------------------|
G |-------------------------------------|-------------------------------------|
D#|-------------------------------------|-------------------------------------|
A#|-------------------------------------|-------------------------------------|
F |-------------------------------------|-----------------00-0-00-0---00-0-0--|
A#|--00-0~-0~-01-01-00~-0~-0~---1br-00--|--00-0~-0~-01-01-11-1-11-1---11-1-1--|
                                                          .. . .. .   .. . .

C |-------------------------------------|--------------------------------|
G |-------This part is distorted--------|--------------------------------|
D#|-------------------------------------|--------------------------------|
A#|-------------------------------------|--------------------------------|
F |-------------------------------------|--------------------------------|
A#|--00-0--00-0--0-00-0-00-00-000-0--0--|--00-0--00-0--0-00-0-00-00-000--|


C |-------------------------------------|-----------------------------------|
G |-------------------------------------|-----------------------------------|
D#|-------------------------------------|-----------------------------------|
A#|-------------------------------------|-----------------------------------|
F |--00-0--00-0--0-00-0-00-00-000-0--0--|--00-0--0000--0-00-0-0-00--0-0000--|
A#|--00-0--00-0--0-00-0-00-00-000-0--0--|--00-0--0000--0-00-0-0-00--0-0000--|
     .. .  .. .  . .. . .. .. ... .  .     .. .  ....  . .. . . ..  . ....

C |-------------------------------------|-----------------------------------|
G |-------------------------------------|-----------------------------------|
D#|-------------------------------------|-----------------------------------|
A#|-------------------------------------|-----------------------------------|
F |--00-0--00-0--0-00-0-00-00-000-0--0--|--00-0--0000--0-00-0-0-00--0-0000--|
A#|--00-0--00-0--0-00-0-00-00-000-0--0--|--00-0--0000--0-00-0-0-00--0-0000--|
     .. .  .. .  . .. . .. .. ... .  .     .. .  ....  . .. . . ..  . ....



[1:27 - 1:40]

C |---------------------------------------------------------------------------|
G |---------------------------------------------------------------------------|
D#|---------------------------------------------------------------------------|
A#|------------------------------10-----10--10--10--10--10----7--7-----7------|
F |--12-----------------13-12-------8-888---8---8---8---8---555--5-------8----|
A#|------0-10-0~--000-0-------00------888---8---8---8---8---555--5--00-----0--|
         .                    .       ..                    ..      .

C |---------------------------------------------------------------------|
G |---------------------------------------------------------------------|
D#|---------------------------------------------------------------------|
A#|------------------------------10-----10--10--10--10--10----7--7------|
F |--12-----------------13-12-------8-888---8---8---8---8---555--5------|
A#|------0-10-0~--000-0-------00------888---8---8---8---8---555--5--00--|
         .                    .       ..                    ..      .



[1:41 - 1:57]

C |---------------------------|-----------------------------|
G |---------------------------|-----------------------------|
D#|---------------------------|-----------------------------|
A#|---------------------------|--------------0~-0-0~-0000~--|
F |--------------------1------|--------------0~-0-0~-0000~--|
A#|--0-0-0-0~-1br--0~----0-0--|--0-0-0-1b--0-1~-1-1~-1111~--|
     . . .                       . . .          . .  ....  

C |---------------------------|----------------------------|
G |---------------------------|----------------------------|
D#|---------------------------|----------------------------|
A#|---------------------------|-------------0~-0~-0-0~--0--|
F |--------------------1------|-------------0~-0~-0-0~--0--|
A#|--0-0-0-0~-1br--0~----0-0--|--0-0-0-1b--01~-1~-1-1~--1--|
     . . .                       . . .     ..  .  . .   .

C |---------------------------|-----------------------------|
G |---------------------------|-----------------------------|
D#|---------------------------|-----------------------------|
A#|---------------------------|--------------0~-0-0~-0000~--|
F |--------------------1------|--------------0~-0-0~-0000~--|
A#|--0-0-0-0~-1br--0~----0-0--|--0-0-0-1b--0-1~-1-1~-1111~--|
     . . .                       . . .          . .  ....  

C |---------------------------|----------------------------|
G |---------------------------|----------------------------|
D#|---------------------------|----------------------------|
A#|---------------------------|-------------0~-0~-x-x---x--|
F |--------------------1------|-------------0~-0~-x-x---x--|
A#|--0-0-0-0~-1br--0~----0-0--|--0-0-0-1b--01~-1~-x-x---x--|
     . . .                       . . .     ..  .



[1:58 - 2:15]

C |--------------------------------------------------|
G |--------------------------------------------------|
D#|--------------------------------------------------|
A#|--------------------------------------------------|
F |--0-0-0-0--0---0---0-0---0-0-0-0--0--0---0--0000--|
A#|--0-0-0-0--0---0---0-0---0-0-0-0--0--0---0--0000--|
     . . . .  .   .   . .   . . . .  .  .   .  ....

C |--------------------------------------------------|
G |--------------------------------------------------|
D#|--------------------------------------------------|
A#|--------------------------------------------------|
F |--0-0-0-0--0---0---0-0---0-0-0-0--0--0---0--0000--|
A#|--0-0-0-0--0---0---0-0---0-0-0-0--0--0---0--0000--|
     . . . .  .   .   . .   . . . .  .  .   .  ....

C |--------------------------------------------------|
G |--------------------------------------------------|
D#|--------------------------------------------------|
A#|--------------------------------------------------|
F |--0-0-0-0--0---0---0-0---0-0-0-0--0--0---0--0000--|
A#|--0-0-0-0--0---0---0-0---0-0-0-0--0--0---0--0000--|
     . . . .  .   .   . .   . . . .  .  .   .  ....

C |--------------------------------------------------|-------|
G |--------------------------------------------------|-------|
D#|--------------------------------------------------|-------|
A#|--------------------------------------------------|---0~--|
F |--0-0-0-0--0---0---0-0---0-0-0-0--0--0---0--0000--|---0~--|
A#|--0-0-0-0--0---0---0-0---0-0-0-0--0--0---0--0000--|---0~--|
     . . . .  .   .   . .   . . . .  .  .   .  ....



[2:15 - 2:42]

Tyler's synth solo.

    "But she fucked up now..."
C |----------------------------------------|----------------------|
G |---(Distorted)--------------------------|----------------------|
D#|----------------------------------------|----------------------|
A#|----------------------------------------|----------------------|
F |----------------------------------------|----------------------|
A#|--0~-0~-0~-1b~-1b~-0--0--0~-1b~-1b~-0~--|--0~-0~-0~-1b~-1b~-0--|
                         .



[2:42 - 3:02]

C |-------------------------------------|-----------------------------------|
G |-------------------------------------|-----------------------------------|
D#|-------------------------------------|-----------------------------------|
A#|-------------------------------------|-----------------------------------|
F |--00-0--00-0--0-00-0-00-00-000-0--0--|--00-0--0000--0-00-0-0-00--0-0000--|
A#|--00-0--00-0--0-00-0-00-00-000-0--0--|--00-0--0000--0-00-0-0-00--0-0000--|
     .. .  .. .  . .. . .. .. ... .  .     .. .  ....  . .. . . ..  . ....

C |--------------------------------------------|-------------------------------|
G |--------------------------------------------|-------------------------------|
D#|--------------------------------------------|-------------------------------|
A#|--00-0-----------0000-0--0000-------0-0000--|--00-0-----------0000-0--0000--|
F |--00-0-----------0000-0--0000-------0-0000--|--00-0-----------0000-0--0000--|
A#|--11-1-----------1111-1--1111-------1-1111--|--11-1-----------1111-1--1111--|
     .. .           .... .  ....       . ....     .. .           .... .  ....



[3:03 - 3:30]

C |---------------------------------------------------------------------------|
G |---------------------------------------------------------------------------|
D#|---------------------------------------------------------------------------|
A#|------------------------------10-----10--10--10--10--10----7--7-----7------|
F |--12-----------------13-12-------8-888---8---8---8---8---555--5-------8----|
A#|------0-10-0~--000-0-------00------888---8---8---8---8---555--5--00-----0--|
         .                    .       ..                    ..      .

C |---------------------------------------------------------------------------|
G |---------------------------------------------------------------------------|
D#|---------------------------------------------------------------------------|
A#|------------------------------10-----10--10--10--10--10----7--7-----7------|
F |--12-----------------13-12-------8-888---8---8---8---8---555--5-------8----|
A#|------0-10-0~--000-0-------00------888---8---8---8---8---555--5--00-----0--|
         .                    .       ..                    ..      .

C |---------------------------------------------------------------------------|
G |---------------------------------------------------------------------------|
D#|---------------------------------------------------------------------------|
A#|------------------------------10-----10--10--10--10--10----7--7-----7------|
F |--12-----------------13-12-------8-888---8---8---8---8---555--5-------8----|
A#|------0-10-0~--000-0-------00------888---8---8---8---8---555--5--00-----0--|
         .                    .       ..                    ..      .

C |---------------------------------------------------------------------------|
G |---------------------------------------------------------------------------|
D#|---------------------------------------------------------------------------|
A#|------------------------------10-----10--10--10--10--10----7--7-----7------|
F |--12-----------------13-12-------8-888---8---8---8---8---555--5-------8----|
A#|------0-10-0~--000-0-------00------888---8---8---8---8---555--5--00-----0--|
         .                    .       ..                    ..      .



[3:30 - 3:48]

C |-------------------------------------|-------------------------------------|
G |-------------------------------------|-------------------------------------|
D#|-------------------------------------|-------------------------------------|
A#|-------------------------------------|-------------------------------------|
F |-------------------------------------|-----------------00-0-00-0---00-0-0--|
A#|--00-0~-0~-01-01-00~-0~-0~---1br-00--|--00-0~-0~-01-01-11-1-11-1---11-1-1--|
                                                          .. . .. .   .. . .

C |-------------------------------------|-------------------------------------|
G |-------------------------------------|-------------------------------------|
D#|-------------------------------------|-------------------------------------|
A#|-------------------------------------|-------------------------------------|
F |-------------------------------------|-----------------00-0-00-0---00-0-0--|
A#|--00-0~-0~-01-01-00~-0~-0~---1br-00--|--00-0~-0~-01-01-11-1-11-1---11-1-1--|
                                                          .. . .. .   .. . .



[END OF SONG]








----------------------------------------------------------------------------------------------------
                                      5. "Love, Sex, Riot (Ft. Fronz)"       
----------------------------------------------------------------------------------------------------

Tuning: Drop A# (A# F A# D# G C)
                (Bb F Bb Eb G C)



[0:00 - 0:23]

C |-------------------------------------|------------------------|
G |-------------------------------------|------------------------|
D#|-------------------------------------|------------------------|
A#|-------------------------------------|------------------------|
F |-------------------------------------|------------------------|
A#|--0-1-0~---4-1~--0~--0-1-0~---1b--0--|--4-1-0~----1b--0~---1--|

"Swerve"

C |-------------------------------------|-----------------------------------|
G |-------------------------------------|-----------------------------------|
D#|-------------------------------------|-----------------------------------|
A#|-------------------------------------|-----------------------------------|
F |-------------------------------------|-----------------------------------|
A#|--0-1-0~---4-1~--0~--0-1-0~---1b--0--|--4-1-0~----1b--0~---1~--2b~-0-1b--|

C |-------------------------------------|-------------------|
G |-------------------------------------|-------------------|
D#|-------------------------------------|-------------------|
A#|-------------------------------------|-------------------|
F |-------------------------------------|-------------------|
A#|--0-1-0~---4-1~--0~--0-1-0~---1b--0--|--4-1-0~----1b--0--|

"Put your hands up!"

C |-------------------------------------|-----------------------------------|
G |-------------------------------------|-----------------------------------|
D#|-------------------------------------|-----------------------------------|
A#|-------------------------------------|-----------------------------------|
F |-------------------------------------|-----------------------------------|
A#|--0-1-0~---4-1~--0~--0-1-0~---1b--0--|--4-1-0~----1b--0~---1~--2b~-0-1b--|

C |-------------------------------------|-----------------------------------|
G |-------------------------------------|-----------------------------------|
D#|-------------------------------------|-----------------------------------|
A#|-------------------------------------|-----------------------------------|
F |-------------------------------------|-----------------------------------|
A#|--0-1-0~---4-1~--0~--0-1-0~---1b--0--|--4-1-0~----1b--0~---1~--2b~-0-1b--|



[0:24 - 0:42]

C |------------------------------------------------------------------|
G |------------------------------------------------------------------|
D#|------------------------------------------------------------------|
A#|--0-0-0~--0-0~--0-0-0-0-0~--0~--0-0-0-0~----0-0-0~--0~--0~--0-0~--|
F |--0-0-0~--0-0~--0-0-0-0-0~--0~--0-0-0-0~----0-0-0~--0~--0~--0-0~--|
A#|--1-1-1~--1-1~--1-1-1-1-1~--1~--1-1-1-1~----1-1-1~--1~--1~--1-1~--|
     . . .   . .   . . . . .   .   . . . .     . . .   .   .   . .

C |------------------------------------------------------------------|
G |------------------------------------------------------------------|
D#|------------------------------------------------------------------|
A#|--0-0-0~--0-0~--0-0-0-0-0~--0~--0-0-0-0~----0-0-0~--0~--0~--0-0~--|
F |--0-0-0~--0-0~--0-0-0-0-0~--0~--0-0-0-0~----0-0-0~--0~--0~--0-0~--|
A#|--1-1-1~--1-1~--1-1-1-1-1~--1~--1-1-1-1~----1-1-1~--1~--1~--1-1~--|
     . . .   . .   . . . . .   .   . . . .     . . .   .   .   . .

C |-----------------------------------------------------------|
G |-----------------------------------------------------------|
D#|-----------------------------------------------------------|
A#|--0-0-0--0000---0-0-0--0~--0-0000--0-0-0---0~--0-0~--0-0~--|
F |--0-0-0--0000---0-0-0--0~--0-0000--0-0-0---0~--0-0~--0-0~--|
A#|--1-1-1--1111---1-1-1--1~--1-1111--1-1-1---1~--1-1~--1-1~--|
     . . .  ....   . . .  .   . ....  . . .   .   . .   . .

C |-----------------------------------------------------------|
G |-----------------------------------------------------------|
D#|-----------------------------------------------------------|
A#|--0-0-0--0000---0-0-0--0~--0-0000--0-0-0---0~--0-0~--0-0~--|
F |--0-0-0--0000---0-0-0--0~--0-0000--0-0-0---0~--0-0~--0-0~--|
A#|--1-1-1--1111---1-1-1--1~--1-1111--1-1-1---1~--1-1~--1-1~--|
     . . .  ....   . . .  .   . ....  . . .   .   . .   . .



[0:43 - 1:11]

C |-----------------------------------------------------------------------|
G |-----------------------------------------------------------------------|
D#|-----------------------------------------------------------------------|
A#|-----------------------------------------------------------------------|
F |-----------------------------------------------------------------------|
A#|--0-0-0-0-0-0-10-10-10-10-5-5-5-5-7-7-8-8-8-8-8-8-8-8-8\5-5-5-1-1-1-3--|

C |-----------------------------------------------------------------------|
G |-----------------------------------------------------------------------|
D#|-----------------------------------------------------------------------|
A#|-----------------------------------------------------------------------|
F |-----------------------------------------------------------------------|
A#|--0-0-0-0-0-0-10-10-10-10-5-5-5-5-7-7-8-8-8-8-8-8-8-8-8\5-5-5-1-1-1-3--|

C |-----------------------------------------------------------------------|
G |-----------------------------------------------------------------------|
D#|-----------------------------------------------------------------------|
A#|-----------------------------------------------------------------------|
F |-----------------------------------------------------------------------|
A#|--0-0-0-0-0-0-10-10-10-10-5-5-5-5-7-7-8-8-8-8-8-8-8-8-8\5-5-5-1-1-1-3--|

C |-----------------------------------------------------------------------|
G |-----------------------------------------------------------------------|
D#|-----------------------------------------------------------------------|
A#|-----------------------------------------------------------------------|
F |-----------------------------------------------------------------------|
A#|--0-0-0-0-0-0-10-10-10-10-5-5-5-5-7-7-8-8-8-8-8-8-8-8-8\5-5-5-1-1-1-3--|

"Love. Sex. Riot. So exciting..."



[1:12 - 1:40]

"Alright... let's do this!"

C |-------------------------------------|-----------------------------------|
G |-------------------------------------|-----------------------------------|
D#|-------------------------------------|-----------------------------------|
A#|-------------------------------------|-----------------------------------|
F |-------------------------------------|-----------------------------------|
A#|--0-1-0~---4-1~--0~--0-1-0~---1b--0--|--4-1-0~----1b--0~---1~--2b~-0-1b--|

C |-------------------------------------|-----------------------------------|
G |-------------------------------------|-----------------------------------|
D#|-------------------------------------|-----------------------------------|
A#|-------------------------------------|--------------------------x-x-x-x--|
F |-------------------------------------|--------------------------x-x-x-x--|
A#|--0-1-0~---4-1~--0~--0-1-0~---1b--0--|--4-1-0~----1b--0---------x-x-x-x--|

C |--------------------------------------|--------------------------------------|
G |--------------------------------------|--------------------------------------|
D#|--------------------------------------|--------------------------------------|
A#|--------------------------------------|-----------------------------x-x-x-x--|
F |--0---------------------2----------1--|-----------------------------x-x-x-x--|
A#|----4-0-1b~---0-1-2b~-----0-1~-2b~----|--0-1-0-2b~--0-1b~--0-2b~--0-x-x-x-x--|

C |--------------------------------------|--------------------------------------|
G |--------------------------------------|--------------------------------------|
D#|--------------------------------------|--------------------------------------|
A#|--------------------------------------|-----------------------------x-x-x-x--|
F |--0---------------------2----------1--|-----------------------------x-x-x-x--|
A#|----4-0-1b~---0-1-2b~-----0-1~-2b~----|--0-1-0-2b~--0-1b~--0-2b~--0-x-x-x-x--|

C |------------------------------------------------|--------------------------------------|
G |------------------------------------------------|--------------------------------------|
D#|------------------------------------------------|--------------------------------------|
A#|------------------------------------------------|--------------------------------------|
F |--0-0-0----0-0-0-0--0--0-0-0--0----0~--0-0-0-0--|--0-0-0----0-0-0-0--0--0-0-0--0----0--|
A#|--0-0-0----0-0-0-0--0--0-0-0--0----0~--0-0-0-0--|--0-0-0----0-0-0-0--0--0-0-0--0----0--|
     . . .    . . . .  .  . . .  .    .   . . . .     . . .    . . . .  .  . . .  .    .



[1:41 - 2:09]

C |-----------------------------------------------------------------------|
G |-----------------------------------------------------------------------|
D#|-----------------------------------------------------------------------|
A#|-----------------------------------------------------------------------|
F |-----------------------------------------------------------------------|
A#|--0-0-0-0-0-0-10-10-10-10-5-5-5-5-7-7-8-8-8-8-8-8-8-8-8\5-5-5-1-1-1-3--|

C |-----------------------------------------------------------------------|
G |-----------------------------------------------------------------------|
D#|-----------------------------------------------------------------------|
A#|-----------------------------------------------------------------------|
F |-----------------------------------------------------------------------|
A#|--0-0-0-0-0-0-10-10-10-10-5-5-5-5-7-7-8-8-8-8-8-8-8-8-8\5-5-5-1-1-1-3--|

C |-----------------------------------------------------------------------|
G |-----------------------------------------------------------------------|
D#|-----------------------------------------------------------------------|
A#|-----------------------------------------------------------------------|
F |-----------------------------------------------------------------------|
A#|--0-0-0-0-0-0-10-10-10-10-5-5-5-5-7-7-8-8-8-8-8-8-8-8-8\5-5-5-1-1-1-3--|

C |-----------------------------------------------------------------------|
G |-----------------------------------------------------------------------|
D#|-----------------------------------------------------------------------|
A#|-----------------------------------------------------------------------|
F |-----------------------------------------------------------------------|
A#|--0-0-0-0-0-0-10-10-10-10-5-5-5-5-7-7-8-8-8-8-8-8-8-8-8\5-5-5-1-1-1-3--|

"Love. Sex. Riot. So exciting..."



[2:10 - 2:40]

"FUCK YEAH!"

C |------------------------------------|-------------------------------|
G |------------------------------------|-------------------------------|
D#|------------------------------------|-------------------------------|
A#|------------------------------------|-------------------------------|
F |-----------------------0~-----------|--0-------0-0--0--0-0-0--0--0--|
A#|--0--0~--0-7~----0-0-3-----1-1-2-0--|----3-0~--0-0--0--0-0-0--0--0--|
                                                  . .  .  . . .  .  .

C |------------------------------------|----------------------------------------|
G |------------------------------------|----------------------------------------|
D#|------------------------------------|----------------------------------------|
A#|------------------------------------|----------------------------------------|
F |-----------------------0~-----------|----------------------------------------|
A#|--0--0~--0-7~----0-0-3-----1-1-2-0--|--10-10-10-10-10\8-8-8-8\7-7-7-7\5-5-5--|

C |------------------------------------|-------------------------------|
G |------------------------------------|-------------------------------|
D#|------------------------------------|-------------------------------|
A#|------------------------------------|-------------------------------|
F |-----------------------0~-----------|--0-------0-0--0--0-0-0--0--0--|
A#|--0--0~--0-7~----0-0-3-----1-1-2-0--|----3-0~--0-0--0--0-0-0--0--0--|
                                                  . .  .  . . .  .  .

C |------------------------------------|----------------------------------------|
G |------------------------------------|----------------------------------------|
D#|------------------------------------|----------------------------------------|
A#|------------------------------------|----------------------------------------|
F |-----------------------0~-----------|----------------------------------------|
A#|--0--0~--0-7~----0-0-3-----1-1-2-0--|--10-10-10-10-10\8-8-8-8\7-7-7-7\5-5-5--|

C |---------------------------------|----------------------------------|
G |---------------------------------|----------------------------------|
D#|---------------------------------|----------------------------------|
A#|-----------------3p0-------------|-----------------7----------------|
F |--0-----------------------3/5----|--0-----------------------10p0----|
A#|----000-0-0-0-0------0-0------0--|----000-0-0-0-0----8-0-0-------0--|
       ..    .          .                ..    .          .

C |---------------------------------|----------------------------------------|
G |---------------------------------|----------------------------------------|
D#|---------------------------------|----------------------------------------|
A#|-----------------3p0-------------|----------------------------------------|
F |--0-----------------------3/5----|----------------------------------------|
A#|----000-0-0-0-0------0-0------0--|--10-10-10-10-10\8-8-8-8\7-7-7-7\5-5-5--|



[2:40 - 2:52]

C |-------------------------------------|
G |-------------------------------------|
D#|-------------------------------------|
A#|-------------------------------------|
F |------------------8------------------|
A#|--0---0-0-7---0-0---7---0-1br-0-0-0--|

GO!

C |------------------------------------------------|------------------------------------------------|
G |------------------------------------------------|------------------------------------------------|
D#|------------------------------------------------|------------------------------------------------|
A#|------------------------------------------------|------------------------------------------------|
F |--0-0-0----0-0-0-0--0--0-0-0--0----0~--0-0-0-0--|--0-0-0----0-0-0-0--0--0-0-0--0----0~--0-0-0-0--|
A#|--0-0-0----0-0-0-0--0--0-0-0--0----0~--0-0-0-0--|--0-0-0----0-0-0-0--0--0-0-0--0----0~--0-0-0-0--|
     . . .    . . . .  .  . . .  .    .   . . . .     . . .    . . . .  .  . . .  .    .   . . . .



[2:53 - 3:18]

C |------------------------------------|-------------------------------|
G |------------------------------------|-------------------------------|
D#|------------------------------------|-------------------------------|
A#|------------------------------------|-------------------------------|
F |-----------------------0~-----------|--0-------0-0--0--0-0-0--0--0--|
A#|--0--0~--0-7~----0-0-3-----1-1-2-0--|----3-0~--0-0--0--0-0-0--0--0--|
                                                  . .  .  . . .  .  .

C |------------------------------------|----------------------------------------|
G |------------------------------------|----------------------------------------|
D#|------------------------------------|----------------------------------------|
A#|------------------------------------|----------------------------------------|
F |-----------------------0~-----------|----------------------------------------|
A#|--0--0~--0-7~----0-0-3-----1-1-2-0--|--10-10-10-10-10\8-8-8-8\7-7-7-7\5-5-5--|

C |------------------------------------|-------------------------------|
G |------------------------------------|-------------------------------|
D#|------------------------------------|-------------------------------|
A#|------------------------------------|-------------------------------|
F |-----------------------0~-----------|--0-------0-0--0--0-0-0--0--0--|
A#|--0--0~--0-7~----0-0-3-----1-1-2-0--|----3-0~--0-0--0--0-0-0--0--0--|
                                                  . .  .  . . .  .  .

C |------------------------------------|----------------------------------------|
G |------------------------------------|----------------------------------------|
D#|------------------------------------|----------------------------------------|
A#|------------------------------------|----------------------------------------|
F |-----------------------0~-----------|----------------------------------------|
A#|--0--0~----7~----0-0-3-----1-1-2-0--|--10-10-10-10-10\8-8-8-8\7-7-7-7\5-5-5--|

"Fire, fire..."



[END OF SONG]








----------------------------------------------------------------------------------------------------
                                         6. "Her Monologue"       
----------------------------------------------------------------------------------------------------

Tuning: Drop A# (A# F A# D# G C)
                (Bb F Bb Eb G C)



[0:00 - 0:53]

"Terrified of getting old..."

C |-------------------------------------------------| > "1b3r1":
G |-------------------------------------------------|   Bend on the first fret
D#|-------------------------------------------------|   to where it sounds like
A#|-------------------------------------------------|   the third fret, then release
F |-------------------------------------------------|   the bend back to where it
A#|--8b--0-0~---1b3r1-1b3r1--0-0--0~---1b3r1--0-0~--|   sounds like the first fret.

C |-------------------------------------------------|
G |-------------------------------------------------|
D#|-------------------------------------------------|
A#|-------------------------------------------------|
F |-------------------------------------------------|
A#|--8b--0-0~---1b3r1-1b3r1--0-0--0~---1b3r1--0-0~--|

C |-------------------------------------------------|
G |-------------------------------------------------|
D#|-------------------------------------------------|
A#|-------------------------------------------------|
F |-------------------------------------------------|
A#|--8b--0-0~---1b3r1-1b3r1--0-0--0~---1b3r1--0-0~--|

C |-------------------------------------------------|
G |-------------------------------------------------|
D#|-------------------------------------------------|
A#|-------------------------------------------------|
F |-------------------------------------------------|
A#|--8b--0-0~---1b3r1-1b3r1--0-0--0~---1b3r1--0-0~--|

C |------------------------------|---------------------------------|
G |------------------------------|---------------------------------|
D#|------------------------------|---------------------------------|
A#|------------------------------|---------------------------------|
F |--0---00-0-0--0----00--0-000--|--0---00-0-0--0---00-0-000-0000--|
A#|--0---00-0-0--0----00--0-000--|--0---00-0-0--0---00-0-000-0000--|
     .   .. . .  .    ..  . ...     .   .. . .  .   .. . ... ....

C |------------------------------|-------------------------------------------------|
G |------------------------------|-------------------------------------------------|
D#|------------------------------|-------------------------------------------------|
A#|------------------------------|---------------8~------------------3~-3~--3~-----|
F |------------------------------|--12~------12~-----12~---------7~-----7~-----7~--|
A#|--0~--00-0-0~-0~---00~-0-000--|-------8~--------------8~--5~--------------------|



[0:53 - 1:24]

C |-------------------------------------------------------------------------------------------|
G |-------------------------------------------------------------------------------------------|
D#|-------------------------------------------------------------------------------------------|
A#|--7~--7~--77~--/10~----7~--7~----/10~---------5~--5~--55~-5~--5~---------------------------|
F |--8~--8~--88~----------8~--8~-----------------5~--5~--55~-5~--5~--------------------/8-----|
A#|--8~--8~--88~-------8~-7~--7~--7~------8~-7~--5~--5~--55~-5~--5~--0--0-0--0--0---0------5--|

C |--------------------------------------------------------------------------------------------|
G |--------------------------------------------------------------------------------------------|
D#|--------------------------------------------------------------------------------------------|
A#|--7~--7~--77~--/10~----7~--7~----/10~---------5~--5~--55~-5~--5~----------------------------|
F |--8~--8~--88~----------8~--8~-----------------5~--5~--55~-5~--5~--------------------0-------|
A#|--8~--8~--88~-------8~-7~--7~--7~------8~-7~--5~--5~--55~-5~--5~--0--0-0--0--0---0----3--0--|

C |--------------------------------------------------------------------------------------------|
G |--------------------------------------------------------------------------------------------|
D#|--------------------------------------------------------------------------------------------|
A#|--------------------------------------------------------------------------------------------|
F |-------------------------------------------------------------------------------------/8-----|
A#|--0~--000~-0~--10~--10~--7~--000~--0~--0~--3~--5~--555~-5~--10~--10~--7~--000--0--0------5--|

C |--------------------------------------------------------------------------------------------|
G |--------------------------------------------------------------------------------------------|
D#|--------------------------------------------------------------------------------------------|
A#|--7~--7~--77~--/10~----7~--7~----/10~---------5~--5~--55~-5~--5~----------------------------|
F |--8~--8~--88~----------8~--8~-----------------5~--5~--55~-5~--5~--------------------0-------|
A#|--8~--8~--88~-------8~-7~--7~--7~------8~-7~--5~--5~--55~-5~--5~--0--0-0--0--0---0----3--0--|



[1:24 - 1:54]

C |-------------------------------------------------|
G |-------------------------------------------------|
D#|-------------------------------------------------|
A#|-------------------------------------------------|
F |-------------------------------------------------|
A#|--8b--0-0~---1b3r1-1b3r1--0-0--0~---1b3r1--0-0~--|

C |-------------------------------------------------|
G |-------------------------------------------------|
D#|-------------------------------------------------|
A#|-------------------------------------------------|
F |-------------------------------------------------|
A#|--8b--0-0~---1b3r1-1b3r1--0-0--0~---1b3r1--0-0~--|

C |--------------------------------|---------------------------------|
G |--------------------------------|---------------------------------|
D#|--------------------------------|---------------------------------|
A#|--------------------------------|---------------------------------|
F |--0-0-0000-0-0--0----00--0-000--|--0---00-0-0--0---00-0-000-0000--|
A#|--0-0-0000-0-0--0----00--0-000--|--0---00-0-0--0---00-0-000-0000--|
     . . .... . .  .    ..  . ...     .   .. . .  .   .. . ... ....

"I can see you sleep through your bedroom window. 
You're killing yourself with lucid dreaming..."



[1:55 - 2:17]

C |----------------------------------------------------|
G |----------------------------------------------------|
D#|----------------------------------------------------|
A#|--0--0-0----0-0--0-------0~--0~--0-0----0-0-0-0--0--|
F |--0--0-0----0-0--0-------0~--0~--0-0----0-0-0-0--0--|
A#|--1--1-1----1-1--1-------1~--1~--1-1----1-1-1-1--1--|
     .  . .    . .  .       .   .   . .    . . . .  .

C |-------------------------------------------------------|
G |-------------------------------------------------------|
D#|-------------------------------------------------------|
A#|--0--0-0----0-0--0---0--0---------------0-0-0-0--0--0--|
F |--0--0-0----0-0--0---0--0---------------0-0-0-0--0--0--|
A#|--1--1-1----1-1--1---1--1---------------1-1-1-1--1--1--|
     .  . .    . .  .   .  .               . . . .  .  .

C |------------------------------|-------------------------------------------------|
G |------------------------------|-------------------------------------------------|
D#|------------------------------|-------------------------------------------------|
A#|------------------------------|---------------8~------------------3~-3~--3~-----|
F |------------------------------|--12~------12~-----12~---------7~-----7~-----7~--|
A#|--0~--00-0-0~-0~---00~-0-000--|-------8~--------------8~--5~--------------------|



[2:18 - 2:48]

C |-------------------------------------------------------------------------------------------|
G |-------------------------------------------------------------------------------------------|
D#|-------------------------------------------------------------------------------------------|
A#|--7~--7~--77~--/10~----7~--7~----/10~---------5~--5~--55~-5~--5~---------------------------|
F |--8~--8~--88~----------8~--8~-----------------5~--5~--55~-5~--5~--------------------/8-----|
A#|--8~--8~--88~-------8~-7~--7~--7~------8~-7~--5~--5~--55~-5~--5~--0--0-0--0--0---0------5--|

C |--------------------------------------------------------------------------------------------|
G |--------------------------------------------------------------------------------------------|
D#|--------------------------------------------------------------------------------------------|
A#|--7~--7~--77~--/10~----7~--7~----/10~---------5~--5~--55~-5~--5~----------------------------|
F |--8~--8~--88~----------8~--8~-----------------5~--5~--55~-5~--5~--------------------0-------|
A#|--8~--8~--88~-------8~-7~--7~--7~------8~-7~--5~--5~--55~-5~--5~--0--0-0--0--0---0----3--0--|

C |--------------------------------------------------------------------------------------------|
G |--------------------------------------------------------------------------------------------|
D#|--------------------------------------------------------------------------------------------|
A#|--------------------------------------------------------------------------------------------|
F |-------------------------------------------------------------------------------------/8-----|
A#|--0~--000~-0~--10~--10~--7~--000~--0~--0~--3~--5~--555~-5~--10~--10~--7~--000--0--0------5--|

C |--------------------------------------------------------------------------------------------|
G |--------------------------------------------------------------------------------------------|
D#|--------------------------------------------------------------------------------------------|
A#|--7~--7~--77~--/10~----7~--7~----/10~---------5~--5~--55~-5~--5~----------------------------|
F |--8~--8~--88~----------8~--8~-----------------5~--5~--55~-5~--5~--------------------0-------|
A#|--8~--8~--88~-------8~-7~--7~--7~------8~-7~--5~--5~--55~-5~--5~--0--0-0--0--0---0----3--0--|



[2:49 - 3:17]

C |-------------------|
G |-------------------| > You can hear this in the background very faintly.
D#|-------------------|   I don't know if it's guitar or not, but I thought
A#|-------------------|   I'd just include it in the tab.  (Played x16)
F |--------------1p0--|
A#|--0-0-0-0-3p0------|

And then...

C |-------------------------------------------------------------------------|
G |-------------------------------------------------------------------------|
D#|-------------------------------------------------------------------------|
A#|--0-0--0-----0--0-0--0--0-0--0--0-------0--0--0--0--------0-0-0-0--0--0--|
F |--0-0--0-----0--0-0--0--0-0--0--0-------0--0--0--0--------0-0-0-0--0--0--|
A#|--1-1--1-----1--1-1--1--1-1--1--1-------1--1--1--1--------1-1-1-1--1--1--|
     . .  .     .  . .  .  . .  .  .       .  .  .  .        . . . .  .  .

C |----------------------------------------------------|
G |----------------------------------------------------|
D#|----------------------------------------------------|
A#|--0-0--0-----0--0-0--0--0-0--0--0-------0--0--0--0--|
F |--0-0--0-----0--0-0--0--0-0--0--0-------0--0--0--0--|
A#|--1-1--1-----1--1-1--1--1-1--1--1-------1--1--1--1--|
     . .  .     .  . .  .  . .  .  .       .  .  .  .



[3:17 - 6:22]

RAP OUTRO



[END OF SONG]





[END OF TAB]





************************************

| br  bend, release
| .   palm mute
| v   vibrato
| ~   held note
| b   bend
| x   mute string
| /   slide up
| \   slide down
| h   hammer-on
| p   pull-off

************************************
comments
print report bad tab
I want to post or [tab]
guest
You may want to rate the tab now too:
select rating
Please do not post tabs as comments. Select "correction" instead!