Oops, an error
Loading. Please wait.

Boyfriend Tab

9,851 views 48 this week
no commentswrite comment
1 2 3 4 5
excellent!
x 6
Autoscroll
+/-
esc
set tempo
stop
Contributor
Difficulty
Tuning
intermediate
A# F A# D# G C
WARNING: You are trying to view
                                    content from Ultimate-Guitar.com
                                    in an unauthorized application,
                                    which is prohibited.

                                    Please use an official Ultimate
                                    Guitar Tabs application for iPhone,
                                    iPad or Android to access legitimate
                                    chords, guitar, bass, and drum tabs
                                    from Ultimate-Guitar.com database.

                                    Type "ultimate guitar tabs" in Apple
                                    App Store's or Android Market's
                                    search to find the application.
--------------------------------------------------------------------------------------------------
                                   ISSUES - "Boyfriend"       
--------------------------------------------------------------------------------------------------

Band: ISSUES
Song: Boyfriend
Album: Punk Goes Pop Vol. 5
Track: 8

Tabbed by: AsILayDying504
Email: mattack_mattack@aol.com

Tuning: Drop A# (A# F A# D# G C)
                (Bb F Bb Eb G C)



[0:00 - 0:27]

C |--------------------------------|--------------------------------|
G |--------------------------------|--------------------------------|
D#|--------------------------------|--------------------------------|
A#|--------------------------------|--------------------------------|
F |---------5~---------------------|---------5~------------3-3-3-3--|
A#|--0--000-----0-0--0--0-1-0-0-3--|--0--0-0-----0-0--0--0----------|


C |--------------------------------|--------------------------------|
G |--------------------------------|--------------------------------|
D#|--------------------------------|--------------------------------|
A#|--------------------------------|--------------------------------|
F |---------5~---------------------|---------5~------------3-3-3-3--|
A#|--0--000-----0-0--0--0-1-0-0-3--|--0--0-0-----0-0--0--0----------|


C |----------------------------|------------------------------|
G |----------------------------|------------------------------|
D#|----------------------------|------------------------------|
A#|----------------------------|------------------------------|
F |--------5~----------3-------|--------5~-------3*-----------|
A#|--0--000----0-0--0-----0-1--|--0--000----0-0------0-1-0-3--|



[0:28 - 0:36]

     "Let me talk to you"
C |-----------------------|
G |-----------------------|
D#|-----------------------|
A#|-----------------------|
F |-----------------------|
A#|------0--0-0--0-0------|



[0:37 - 0:56]

C |-------------------------------------------------------|
G |-------------------------------------------------------|
D#|-------------------------------------------------------|
A#|-------------------------------------------------------|
F |----------------------------3--5-5-5-3----------3------|
A#|--0--0-0--0--0-5-5-5---5--5-------------3--3-3----2-2--|


C |-------------------------------------------------------|
G |-------------------------------------------------------|
D#|-------------------------------------------------------|
A#|-------------------------------------------------------|
F |----------------------------3--5-5-5-3--3--------------|
A#|--0--0----0--0-5-5-5---5--5---------------3--3-3--2-2--|


    Guitar 1
C |---------------------------------------------------------------------------------------------|
G |---------------------------------------------------------------------------------------------|
D#|-------------------------------------------------5-5-----------------------------------------|
A#|--0-0------------------5-5-----------------------5-5------------------3-3--------------------|
F |--0-0------------------5-5-----------------------3-3------------------3-3--------------------|
A#|--0-0------------------5-5--------------------------------------------3-3--------2-----------|
  |
  | Guitar 2
C |--12h13p12------------------------------------|--12h13p12------------------------------------|
G |----------13h15p13-----13h15p13---------------|----------13h15p13-----13h15p13---------------|
D#|------------------14p12--------12h14p12-------|------------------14p12--------12h14p12-------|
A#|---------------------------------------10h12--|---------------------------------------10h12--|
F |----------------------------------------------|----------------------------------------------|
A#|----------------------------------------------|----------------------------------------------|


    Guitar 1
C |---------------------------------------------------------------------------------------------|
G |---------------------------------------------------------------------------------------------|
D#|-------------------------------------------------5-5-----------------------------------------|
A#|--0-0------------------5-5-----------------------5-5------------------3-3--------------------|
F |--0-0------------------5-5-----------------------3-3------------------3-3--------------------|
A#|--0-0------------------5-5--------------------------------------------3-3--------------------|
  |
  | Guitar 2
C |--12h13p12------------------------------------|--12h13p12------------------------------------|
G |----------13h15p13-----13h15p13---------------|----------13h15p13-----13h15p13---------------|
D#|------------------14p12--------12h14p12-------|------------------14p12--------12h14p12-------|
A#|---------------------------------------10h12--|---------------------------------------10h12--|
F |----------------------------------------------|----------------------------------------------|
A#|----------------------------------------------|----------------------------------------------|





[0:57 - 1:15]

C |--------------------------------|--------------------------------|
G |--------------------------------|--------------------------------|
D#|--------------------------------|--------------------------------|
A#|--------------------------------|--------------------------------|
F |---------5~---------------------|---------5~------------3-3-3-3--|
A#|--0--000-----0-0--0--0-1-0-0-3--|--0--0-0-----0-0--0--0----------|


C |--------------------------------|--------------------------------|
G |--------------------------------|--------------------------------|
D#|--------------------------------|--------------------------------|
A#|--------------------------------|--------------------------------|
F |---------5~---------------------|---------5~------------3-3-3-3--|
A#|--0--000-----0-0--0--0-1-0-0-3--|--0--0-0-----0-0--0--0----------|


C |----------------------------|------------------------------|
G |----------------------------|------------------------------|
D#|----------------------------|------------------------------|
A#|----------------------------|------------------------------|
F |--------5~----------3-------|--------5~-------3*-----------|
A#|--0--000----0-0--0-----0-1--|--0--000----0-0------0-1-0-3--|



[1:16 - 1:24]

C |--------------------------------------------------------|
G |--------------------------------------------------------|
D#|--------------------------------------------------------|
A#|--------------------------------------------------------|
F |--------------------------------------------------------|
A#|------0-0-0-0-0-0-12-12-12\----0-0-10-10-0-0--0----000--|
                                            .         ..

C |-------------------------------------------------------|
G |-------------------------------------------------------|
D#|-------------------------------------------------------|
A#|-------------------------------------------------------|
F |-------------------------------------------------------|
A#|--8-8-8-8-8-3-3-3-3-3--0-12-12-12-12-12-12--0-8-8-0-0--|



[1:25 - 1:43]

C |-------------------------------------------------------|
G |-------------------------------------------------------|
D#|-------------------------------------------------------|
A#|-------------------------------------------------------|
F |----------------------------3--5-5-5-3----------3------|
A#|--0--0-0--0--0-5-5-5---5--5-------------3--3-3----2-2--|


C |-------------------------------------------------------|
G |-------------------------------------------------------|
D#|-------------------------------------------------------|
A#|-------------------------------------------------------|
F |----------------------------3--5-5-5-3--3--------------|
A#|--0--0----0--0-5-5-5---5--5---------------3--3-3--2-2--|


    Guitar 1
C |---------------------------------------------------------------------------------------------|
G |---------------------------------------------------------------------------------------------|
D#|-------------------------------------------------5-5-----------------------------------------|
A#|--0-0------------------5-5-----------------------5-5------------------3-3--------------------|
F |--0-0------------------5-5-----------------------3-3------------------3-3--------------------|
A#|--0-0------------------5-5--------------------------------------------3-3--------2-----------|
  |
  | Guitar 2
C |--12h13p12------------------------------------|--12h13p12------------------------------------|
G |----------13h15p13-----13h15p13---------------|----------13h15p13-----13h15p13---------------|
D#|------------------14p12--------12h14p12-------|------------------14p12--------12h14p12-------|
A#|---------------------------------------10h12--|---------------------------------------10h12--|
F |----------------------------------------------|----------------------------------------------|
A#|----------------------------------------------|----------------------------------------------|


C |------------------------------------------------------------------------------------|
G |------------------------------------------------------------------------------------|
D#|-------------------------------------------------5-5--------------------------------|
A#|--0-0------------------5-5-----------------------5-5------------------3\----0--0-0--|
F |--0-0------------------5-5-----------------------3-3------------------3\----0--0-0--|
A#|--0-0------------------5-5--------------------------------------------3\----1--1-1--|
  |                                                                            .  . .
  |
  | Guitar 2
C |--12h13p12------------------------------------|--12h13p12---------------------------|
G |----------13h15p13-----13h15p13---------------|----------13h15p13-------------------|
D#|------------------14p12--------12h14p12-------|------------------14p12--------------|
A#|---------------------------------------10h12--|-------------------------------------|
F |----------------------------------------------|-------------------------------------|
A#|----------------------------------------------|-------------------------------------|



[1:44 - 1:53]

C |------------------------------------------------|
G |------------------------------------------------|
D#|------------------------------------------------|
A#|--000-0-0--0-0-----0-0--0-0--0-0-0--000-0--0-0--|
F |--000-0-0--0-0-----0-0--0-0--0-0-0--000-0--0-0--|
A#|--111-1-1--1-1-----1-1--1-1--1-1-1--111-1--1-1--|
     ... . .  . .     . .  . .  . . .  ... .  . .

C |-----------------------------------------5+------------|
G |-----------------------------------------5+------------|
D#|-----------------------------------------5+------------|
A#|--000-0-0--0-----------------------------5+------------|
F |--000-0-0--0-----------------------3-------------------|
A#|--111-1-1--1-3b----0--0-0----0-0-----3-0-----0-0--0-0--|
     ... . .  .



[1:54 - 2:12]

Tyler's solo

    "If I was your man..."
C |---------------------------------------|-----------------------------------------------|
G |---------------------------------------|-----------------------------------------------|
D#|--7-7-7-7-7-7-7-7-9-9-9-9-10-10-10-10--|--14-14-14-14-14-14-14-14-10-10-10-10-9-9-9-9--|
A#|--x-x-x-x-x-x-x-x-x-x-x-x-x--x--x--x---|--x--x--x--x--x--x--x--x--x--x--x--x--x-x-x-x--|
F |--5-5-5-5-5-5-5-5-7-7-7-7-8--8--8--8---|--12-12-12-12-12-12-12-12-8--8--8--8--7-7-7-7--|
A#|---------------------------------------|-----------------------------------------------|

C |-----------------------------------|-----------------------------------|
G |-----------------------------------|-----------------------------------|
D#|--7-7-7-7-7-7-7-7-7-7-7-7-7-7-7-7--|--5-5-5-5-5-5-5-5------------------|
A#|--x-x-x-x-x-x-x-x-x-x-x-x-x-x-x-x--|--x-x-x-x-x-x-x-x------------------|
F |--5-5-5-5-5-5-5-5-5-5-5-5-5-5-5-5--|--3-3-3-3-3-3-3-3------------------|
A#|-----------------------------------|------------------0-------0--------|



[2:13 - 2:52]

C |------------------------------------------------------------------|
G |------------------------------------------------------------------|
D#|------------------------------------------------------------------|
A#|------------------------------------------------------------------|
F |----------3----------------------------3--5-5-5-3----------3------|
A#|--0---------2b--0--0-0--0-5-5-5---5--5-------------3--3-3----2-2--|


C |-------------------------------------------------------|
G |-------------------------------------------------------|
D#|-------------------------------------------------------|
A#|-------------------------------------------------------|
F |----------------------------3--5-5-5-3--3--------------|
A#|--0--0----0--0-5-5-5---5--5---------------3--3-3--2-2--|


C |------------------------------------------------------|
G |------------------------------------------------------|
D#|----------------------------5-5~----------------------|
A#|--0-0~---------5-5~---------5-5~---------3-3~---------|
F |--0-0~---------5-5~---------3-3~---------3-3~---------|
A#|--0-0~---------5-5~----------------------3-3~---2~----|


C |------------------------------------------------------|
G |------------------------------------------------------|
D#|----------------------------5-5-----------------------|
A#|--0-0----------5-5----------5-5----------3-3----------|
F |--0-0----------5-5----------3-3----------3-3----------|
A#|--0-0----------5-5-----------------------3-3----------|


C |-------------------------------------------------------|
G |-------------------------------------------------------|
D#|-------------------------------------------------------|
A#|-------------------------------------------------------|
F |----------------------------3--5-5-5-3----------3------|
A#|--0--0-0--0--0-5-5-5---5--5-------------3--3-3----2-2--|


C |-------------------------------------------------------|
G |-------------------------------------------------------|
D#|-------------------------------------------------------|
A#|-------------------------------------------------------|
F |----------------------------3--5-5-5-3--3--------------|
A#|--0--0----0--0-5-5-5---5--5---------------3--3-3--2-2--|


C |------------------------------------------------------|
G |------------------------------------------------------|
D#|----------------------------5-5~----------------------|
A#|--0-0~---------5-5~---------5-5~---------3-3~---------|
F |--0-0~---------5-5~---------3-3~---------3-3~---------|
A#|--0-0~---------5-5~----------------------3-3~---2~----|


C |------------------------------------------------------|
G |------------------------------------------------------|
D#|----------------------------5-5-----------------------|
A#|--0-0----------5-5----------5-5----------3-3----------|
F |--0-0----------5-5----------3-3----------3-3-----3----|
A#|--0-0----------5-5-----------------------3-3-------2--|



[2:53 - 3:15]

C |------------------------------------------------|
G |------------------------------------------------|
D#|------------------------------------------------|
A#|--000-0-0--0-0-----0-0--0-0--0-0-0--000-0--0-0--|
F |--000-0-0--0-0-----0-0--0-0--0-0-0--000-0--0-0--|
A#|--111-1-1--1-1-----1-1--1-1--1-1-1--111-1--1-1--|
     ... . .  . .     . .  . .  . . .  ... .  . .

C |-----------------------------------------5+------------|
G |-----------------------------------------5+------------|
D#|-----------------------------------------5+------------|
A#|--000-0-0--0-----------------------------5+------------|
F |--000-0-0--0-----------------------3-------------------|
A#|--111-1-1--1-3b----0--0-0----0-0-----3-0-----0-0--0-0--|
     ... . .  .

C |------------------------------------------------|
G |------------------------------------------------|
D#|------------------------------------------------|
A#|-----------0-0-----0-0--0-0--0-0-0--000-0--0-0--|
F |--x-x-x-x--0-0-----0-0--0-0--0-0-0--000-0--0-0--|
A#|--x-x-x-x--1-1-----1-1--1-1--1-1-1--111-1--1-1--|
              . .     . .  . .  . . .  ... .  . .

C |-----------------------------------------5+------------|
G |-----------------------------------------5+------------|
D#|-----------------------------------------5+------------|
A#|--000-0-0--0-----------------------------5+------------|
F |--000-0-0--0-----------------------3-------------------|
A#|--111-1-1--1-3b----0--0-0----0-0-----3-0-----0-0--0-0--|
     ... . .  .



[END]



************************************

| ~   held note
| *   pinch harmonic
| h   hammer-on
| p   pull-off
| \   slide down
| .   palm mute
| b   bend
| +   natural harmonic
| x   mute string

************************************
comments
print report bad tab
I want to post or [tab]
guest
You may want to rate the tab now too:
select rating
Please do not post tabs as comments. Select "correction" instead!