Oops, an error
Loading. Please wait.

Princeton Ave Tab

12,729 views 111 this week
1 commentread comment
1 2 3 4 5
excellent!
x 9
add to favorites launch autoscroll
font size
0
reset
Autoscroll
+/-
esc
set tempo
stop
Contributor
Difficulty
Tuning
intermediate
A# F A# D# G C
WARNING: You are trying to view
                                    content from Ultimate-Guitar.com
                                    in an unauthorized application,
                                    which is prohibited.

                                    Please use an official Ultimate
                                    Guitar Tabs application for iPhone,
                                    iPad or Android to access legitimate
                                    chords, guitar, bass, and drum tabs
                                    from Ultimate-Guitar.com database.

                                    Type "ultimate guitar tabs" in Apple
                                    App Store's or Android Market's
                                    search to find the application.
-------------------------------------------------------------------------------------------------
                                   ISSUES - "Princeton Ave"       
-------------------------------------------------------------------------------------------------

Band: ISSUES
Song: Princeton Ave
Album: Black Diamonds EP
Track: 4

Tabbed by: Matthew Langston
Email: mattack_mattack@aol.com

Tuning: Drop A# (A# F A# D# G C)
                (Bb F Bb Eb G C)



[0:00 - 0:30]

Piano intro.



[0:31 - 0:58]

C |---------------------------------------------------------------------------|
G |---------------------------------------------------------------------------|
D#|---------------------------------------------------------------------------|
A#|------------------------------10-----10--10--10--10--10----7--7-----7------|
F |--12-----------------13-12-------8-888---8---8---8---8---555--5-------8----|
A#|------0-10-0~--000-0-------00------888---8---8---8---8---555--5--00-----0--|
         .                    .       ..                    ..      .

C |---------------------------------------------------------------------------|
G |---------------------------------------------------------------------------|
D#|---------------------------------------------------------------------------|
A#|------------------------------10-----10--10--10--10--10----7--7-----7------|
F |--12-----------------13-12-------8-888---8---8---8---8---555--5-------8----|
A#|------0-10-0~--000-0-------00------888---8---8---8---8---555--5--00-----0--|
         .                    .       ..                    ..      .

C |---------------------------------------------------------------------------|
G |---------------------------------------------------------------------------|
D#|---------------------------------------------------------------------------|
A#|------------------------------10-----10--10--10--10--10----7--7-----7------|
F |--12-----------------13-12-------8-888---8---8---8---8---555--5-------8----|
A#|------0-10-0~--000-0-------00------888---8---8---8---8---555--5--00-----0--|
         .                    .       ..                    ..      .

C |---------------------------------------------------------------------------|
G |---------------------------------------------------------------------------|
D#|---------------------------------------------------------------------------|
A#|------------------------------10-----10--10--10--10--10----7--7-----7------|
F |--12-----------------13-12-------8-888---8---8---8---8---555--5-------8----|
A#|------0-10-0~--000-0-------00------888---8---8---8---8---555--5--00-----0--|
         .                    .       ..                    ..      .



[0:58 - 1:26]

C |-------------------------------------|-------------------------------------|
G |-------------------------------------|-------------------------------------|
D#|-------------------------------------|-------------------------------------|
A#|-------------------------------------|-------------------------------------|
F |-------------------------------------|-----------------00-0-00-0---00-0-0--|
A#|--00-0~-0~-01-01-00~-0~-0~---1br-00--|--00-0~-0~-01-01-11-1-11-1---11-1-1--|
                                                          .. . .. .   .. . .

C |-------------------------------------|--------------------------------|
G |-------This part is distorted--------|--------------------------------|
D#|-------------------------------------|--------------------------------|
A#|-------------------------------------|--------------------------------|
F |-------------------------------------|--------------------------------|
A#|--00-0--00-0--0-00-0-00-00-000-0--0--|--00-0--00-0--0-00-0-00-00-000--|


C |-------------------------------------|-----------------------------------|
G |-------------------------------------|-----------------------------------|
D#|-------------------------------------|-----------------------------------|
A#|-------------------------------------|-----------------------------------|
F |--00-0--00-0--0-00-0-00-00-000-0--0--|--00-0--0000--0-00-0-0-00--0-0000--|
A#|--00-0--00-0--0-00-0-00-00-000-0--0--|--00-0--0000--0-00-0-0-00--0-0000--|
     .. .  .. .  . .. . .. .. ... .  .     .. .  ....  . .. . . ..  . ....

C |-------------------------------------|-----------------------------------|
G |-------------------------------------|-----------------------------------|
D#|-------------------------------------|-----------------------------------|
A#|-------------------------------------|-----------------------------------|
F |--00-0--00-0--0-00-0-00-00-000-0--0--|--00-0--0000--0-00-0-0-00--0-0000--|
A#|--00-0--00-0--0-00-0-00-00-000-0--0--|--00-0--0000--0-00-0-0-00--0-0000--|
     .. .  .. .  . .. . .. .. ... .  .     .. .  ....  . .. . . ..  . ....



[1:27 - 1:40]

C |---------------------------------------------------------------------------|
G |---------------------------------------------------------------------------|
D#|---------------------------------------------------------------------------|
A#|------------------------------10-----10--10--10--10--10----7--7-----7------|
F |--12-----------------13-12-------8-888---8---8---8---8---555--5-------8----|
A#|------0-10-0~--000-0-------00------888---8---8---8---8---555--5--00-----0--|
         .                    .       ..                    ..      .

C |---------------------------------------------------------------------|
G |---------------------------------------------------------------------|
D#|---------------------------------------------------------------------|
A#|------------------------------10-----10--10--10--10--10----7--7------|
F |--12-----------------13-12-------8-888---8---8---8---8---555--5------|
A#|------0-10-0~--000-0-------00------888---8---8---8---8---555--5--00--|
         .                    .       ..                    ..      .



[1:41 - 1:57]

C |---------------------------|-----------------------------|
G |---------------------------|-----------------------------|
D#|---------------------------|-----------------------------|
A#|---------------------------|--------------0~-0-0~-0000~--|
F |--------------------1------|--------------0~-0-0~-0000~--|
A#|--0-0-0-0~-1br--0~----0-0--|--0-0-0-1b--0-1~-1-1~-1111~--|
     . . .                       . . .          . .  ....  

C |---------------------------|----------------------------|
G |---------------------------|----------------------------|
D#|---------------------------|----------------------------|
A#|---------------------------|-------------0~-0~-0-0~--0--|
F |--------------------1------|-------------0~-0~-0-0~--0--|
A#|--0-0-0-0~-1br--0~----0-0--|--0-0-0-1b--01~-1~-1-1~--1--|
     . . .                       . . .     ..  .  . .   .

C |---------------------------|-----------------------------|
G |---------------------------|-----------------------------|
D#|---------------------------|-----------------------------|
A#|---------------------------|--------------0~-0-0~-0000~--|
F |--------------------1------|--------------0~-0-0~-0000~--|
A#|--0-0-0-0~-1br--0~----0-0--|--0-0-0-1b--0-1~-1-1~-1111~--|
     . . .                       . . .          . .  ....  

C |---------------------------|------------------------|
G |---------------------------|------------------------|
D#|---------------------------|------------------------|
A#|---------------------------|-------------0~-0~-x-x--|
F |--------------------1------|-------------0~-0~-x-x--|
A#|--0-0-0-0~-1br--0~----0-0--|--0-0-0-1b--01~-1~-x-x--|
     . . .                       . . .     ..  .



[1:58 - 2:15]

C |--------------------------------------------------|
G |--------------------------------------------------|
D#|--------------------------------------------------|
A#|--------------------------------------------------|
F |--0-0-0-0--0---0---0-0---0-0-0-0--0--0---0--0000--|
A#|--0-0-0-0--0---0---0-0---0-0-0-0--0--0---0--0000--|
     . . . .  .   .   . .   . . . .  .  .   .  ....

C |--------------------------------------------------|
G |--------------------------------------------------|
D#|--------------------------------------------------|
A#|--------------------------------------------------|
F |--0-0-0-0--0---0---0-0---0-0-0-0--0--0---0--0000--|
A#|--0-0-0-0--0---0---0-0---0-0-0-0--0--0---0--0000--|
     . . . .  .   .   . .   . . . .  .  .   .  ....

C |--------------------------------------------------|
G |--------------------------------------------------|
D#|--------------------------------------------------|
A#|--------------------------------------------------|
F |--0-0-0-0--0---0---0-0---0-0-0-0--0--0---0--0000--|
A#|--0-0-0-0--0---0---0-0---0-0-0-0--0--0---0--0000--|
     . . . .  .   .   . .   . . . .  .  .   .  ....

C |--------------------------------------------------|-------|
G |--------------------------------------------------|-------|
D#|--------------------------------------------------|-------|
A#|--------------------------------------------------|---0~--|
F |--0-0-0-0--0---0---0-0---0-0-0-0--0--0---0--0000--|---0~--|
A#|--0-0-0-0--0---0---0-0---0-0-0-0--0--0---0--0000--|---0~--|
     . . . .  .   .   . .   . . . .  .  .   .  ....



[2:15 - 2:42]

Tyler's synth solo.

    "but she f***** up now..."
C |----------------------------------------|----------------------|
G |---(Distorted)--------------------------|----------------------|
D#|----------------------------------------|----------------------|
A#|----------------------------------------|----------------------|
F |----------------------------------------|----------------------|
A#|--0~-0~-0~-1b~-1b~-0--0--0~-1b~-1b~-0~--|--0~-0~-0~-1b~-1b~-0--|
                         .



[2:42 - 3:02]

C |-------------------------------------|-----------------------------------|
G |-------------------------------------|-----------------------------------|
D#|-------------------------------------|-----------------------------------|
A#|-------------------------------------|-----------------------------------|
F |--00-0--00-0--0-00-0-00-00-000-0--0--|--00-0--0000--0-00-0-0-00--0-0000--|
A#|--00-0--00-0--0-00-0-00-00-000-0--0--|--00-0--0000--0-00-0-0-00--0-0000--|
     .. .  .. .  . .. . .. .. ... .  .     .. .  ....  . .. . . ..  . ....

C |--------------------------------------------|-------------------------------|
G |--------------------------------------------|-------------------------------|
D#|--------------------------------------------|-------------------------------|
A#|--00-0-----------0000-0--0000-------0-0000--|--00-0-----------0000-0--0000--|
F |--00-0-----------0000-0--0000-------0-0000--|--00-0-----------0000-0--0000--|
A#|--11-1-----------1111-1--1111-------1-1111--|--11-1-----------1111-1--1111--|
     .. .           .... .  ....       . ....     .. .           .... .  ....



[3:03 - 3:30]

C |---------------------------------------------------------------------------|
G |---------------------------------------------------------------------------|
D#|---------------------------------------------------------------------------|
A#|------------------------------10-----10--10--10--10--10----7--7-----7------|
F |--12-----------------13-12-------8-888---8---8---8---8---555--5-------8----|
A#|------0-10-0~--000-0-------00------888---8---8---8---8---555--5--00-----0--|
         .                    .       ..                    ..      .

C |---------------------------------------------------------------------------|
G |---------------------------------------------------------------------------|
D#|---------------------------------------------------------------------------|
A#|------------------------------10-----10--10--10--10--10----7--7-----7------|
F |--12-----------------13-12-------8-888---8---8---8---8---555--5-------8----|
A#|------0-10-0~--000-0-------00------888---8---8---8---8---555--5--00-----0--|
         .                    .       ..                    ..      .

C |---------------------------------------------------------------------------|
G |---------------------------------------------------------------------------|
D#|---------------------------------------------------------------------------|
A#|------------------------------10-----10--10--10--10--10----7--7-----7------|
F |--12-----------------13-12-------8-888---8---8---8---8---555--5-------8----|
A#|------0-10-0~--000-0-------00------888---8---8---8---8---555--5--00-----0--|
         .                    .       ..                    ..      .

C |---------------------------------------------------------------------------|
G |---------------------------------------------------------------------------|
D#|---------------------------------------------------------------------------|
A#|------------------------------10-----10--10--10--10--10----7--7-----7------|
F |--12-----------------13-12-------8-888---8---8---8---8---555--5-------8----|
A#|------0-10-0~--000-0-------00------888---8---8---8---8---555--5--00-----0--|
         .                    .       ..                    ..      .



[3:30 - 3:48]

C |-------------------------------------|-------------------------------------|
G |-------------------------------------|-------------------------------------|
D#|-------------------------------------|-------------------------------------|
A#|-------------------------------------|-------------------------------------|
F |-------------------------------------|-----------------00-0-00-0---00-0-0--|
A#|--00-0~-0~-01-01-00~-0~-0~---1br-00--|--00-0~-0~-01-01-11-1-11-1---11-1-1--|
                                                          .. . .. .   .. . .

C |-------------------------------------|-------------------------------------|
G |-------------------------------------|-------------------------------------|
D#|-------------------------------------|-------------------------------------|
A#|-------------------------------------|-------------------------------------|
F |-------------------------------------|-----------------00-0-00-0---00-0-0--|
A#|--00-0~-0~-01-01-00~-0~-0~---1br-00--|--00-0~-0~-01-01-11-1-11-1---11-1-1--|
                                                          .. . .. .   .. . .



[END]



************************************

| .   palm mute
| ~   held note
| br  bend, release
| b   bend
| x   mute string

************************************
comments
print report bad tab
1 comment total.
0 reply
DavidToDefy wrote on November 8 2013, 12:21 pm

Spot on tab. Well written. I can play this no problem. Eventually, I'll upload a cover of this. Nicely done, bro

I want to post or [tab]
guest
You may want to rate the tab now too:
select rating
Please do not post tabs as comments. Select "correction" instead!