Oops, an error
Loading. Please wait.

The Worst Of Them Tab

ver1
ver1

Whole song

Interactive

More versions @911Tabs.com
16,034 views 48 this week
no commentswrite comment
1 2 3 4 5
accurate
x 5
Autoscroll
+/-
esc
set tempo
stop
Contributor
Difficulty
Tuning
intermediate
B F# B E G# C#
Hey! There's an official Ultimate Guitar app which is ideal
for learning songs when you're away from computer. Get the app
WARNING: You are trying to view
                                    content from Ultimate-Guitar.com
                                    in an unauthorized application,
                                    which is prohibited.

                                    Please use an official Ultimate
                                    Guitar Tabs application for iPhone,
                                    iPad or Android to access legitimate
                                    chords, guitar, bass, and drum tabs
                                    from Ultimate-Guitar.com database.

                                    Type "ultimate guitar tabs" in Apple
                                    App Store's or Android Market's
                                    search to find the application.
--------------------------------------------------------------------------------------------------
                                   ISSUES - "The Worst Of Them"       
--------------------------------------------------------------------------------------------------

Band: ISSUES
Song: The Worst Of Them
Album: Black Diamonds EP
Track: 3

Tabbed by: Matthew Langston
Email: mattack_mattack@aol.com

Tuning: Drop B (B F# B E G# C#)
               (B Gb B E Ab Db)



[0:00 - 0:23]

C#|-----------------------------------------------------------------------|
G#|-----------------------------------------------------------------------|
E |-----------------------------------------------------------------------|
B |--8-8-8-8-8-8-8-8-8-8-8-8-10-10-10-10-0-0-0-0-0-0-0-0-0-0-0-0-3-3-3-3--|
F#|--8-8-8-8-8-8-8-8-8-8-8-8-10-10-10-10-0-0-0-0-0-0-0-0-0-0-0-0-3-3-3-3--|
B |--8-8-8-8-8-8-8-8-8-8-8-8-10-10-10-10-0-0-0-0-0-0-0-0-0-0-0-0-3-3-3-3--|

C#|-------------------------------------------------------|-----------|-----------|
G#|-------------------------------------------------------|--Guitar1--|--Guitar2--|
E |-------------------------------------------------------|-----------|-----------|
B |--5-5-5-5-5-5-5-5-5-5-5-5-7-7-7-7-0-0-0-0-0-0-0-0-3-3--|-----------|--7-5-7-5--|
F#|--5-5-5-5-5-5-5-5-5-5-5-5-7-7-7-7-0-0-0-0-0-0-0-0-3-3--|-----------|-----------|
B |--5-5-5-5-5-5-5-5-5-5-5-5-7-7-7-7-0-0-0-0-0-0-0-0-3-3--|--7-5-7-5--|-----------|

C#|-------------------------------------------------------------------|
G#|-------------------------------------------------------------------|
E |--3-3-3-3-3-3-3-3-3-3-3-3-3/5-5-5-5-5-5-5-5-5-5-5-5-5-5-5-5-5-5-5--|
B |--3-3-3-3-3-3-3-3-3-3-3-3-3/5-5-5-3-3-3-3-3-3-3-3-3-3-3-3-3-3-3-3--|
F#|--1-1-1-1-1-1-1-1-1-1-1-1-1/3-3-3-5-5-5-5-5-5-5-5-5-5-5-5-5-5-5-5--|
B |-------------------------------------------------------------------|

C#|--------------------------------------------------------------------|
G#|--------------------------------------------------------------------|
E |--------------------------------------------------------------------|
B |--------------------------------------------------------------------|
F#|--------------------------------------------------------------------|
B |--0-0-0-0-0-12~--0-0-0-0-12~--8-8/10-10\5-5-5-5~--5~--5-5-7~-5~-3~--|



[0:24 - 0:56]

C#|----------------------------------|------------------------------------|
G#|----------------------------------|------------------------------------|
E |----------------------------------|------------------------------------|
B |----------------------------------|------------------------------------|
F#|--0-0-0---0------0-0-0-000-0---0--|--0-0-0---0------0-0-0-000-0-000-0--|
B |--0-0-0---0------0-0-0-000-0---0--|--0-0-0---0------0-0-0-000-0-000-0--|
     . . .   .      . . . ... .   .     . . .   .      . . . ... . ... .

C#|--------------------------------|---------------------------------|
G#|--------------------------------|---------------------------------|
E |--------------------------------|---------------------------------|
B |--------------3~----------------|-----------------5~-7~--1-1-1-1--|
F#|--0h1-----------7~----0~--8-----|----3p1--0~-------------1-1-1-1--|
B |------0-0~--0-------0-------5~--|--0----------0-0--------1-1-1-1--|
         .     .       .              .          . .        . . . .

C#|----------------------------------|
G#|----------------------------------|
E |----------------------------------|
B |----------------------------------|
F#|--0-0-0---0------0-0-0-000-0---0--|
B |--0-0-0---0------0-0-0-000-0---0--|
     . . .   .      . . . ... .   .

C#|-------------------------------------------------------------------|
G#|-------------------------------------------------------------------|
E |-------------------------------------------------------------------|
B |--------------3---3---3---3---3---5---5---5---5---8---8---8---8----|
F#|--0h1-----------7---7---7---7---7---7---7---7---7---7---7---7---7--|
B |------0-0~--0------------------------------------------------------|
         .     .

C#|-------------------------------|
G#|-------------------------------|
E |-------------------------------|
B |-----10~---7~-8~-7~------------|
F#|---------8----------0-0-0---0--|
B |--8~----------------0-0-0---0--|
                       . . .   .



[0:57 - 1:18]

C#|-----------------------------------------------------------------------|
G#|-----------------------------------------------------------------------|
E |-----------------------------------------------------------------------|
B |--8-8-8-8-8-8-8-8-8-8-8-8-10-10-10-10-0-0-0-0-0-0-0-0-0-0-0-0-3-3-3-3--|
F#|--8-8-8-8-8-8-8-8-8-8-8-8-10-10-10-10-0-0-0-0-0-0-0-0-0-0-0-0-3-3-3-3--|
B |--8-8-8-8-8-8-8-8-8-8-8-8-10-10-10-10-0-0-0-0-0-0-0-0-0-0-0-0-3-3-3-3--|

C#|-------------------------------------------------------|-----------|-----------|
G#|-------------------------------------------------------|--Guitar1--|--Guitar2--|
E |-------------------------------------------------------|-----------|-----------|
B |--5-5-5-5-5-5-5-5-5-5-5-5-7-7-7-7-0-0-0-0-0-0-0-0-3-3--|-----------|--7-5-7-5--|
F#|--5-5-5-5-5-5-5-5-5-5-5-5-7-7-7-7-0-0-0-0-0-0-0-0-3-3--|-----------|-----------|
B |--5-5-5-5-5-5-5-5-5-5-5-5-7-7-7-7-0-0-0-0-0-0-0-0-3-3--|--7-5-7-5--|-----------|

C#|-------------------------------------------------------------------|
G#|-------------------------------------------------------------------|
E |--3-3-3-3-3-3-3-3-3-3-3-3-3/5-5-5-5-5-5-5-5-5-5-5-5-5-5-5-5-5-5-5--|
B |--3-3-3-3-3-3-3-3-3-3-3-3-3/5-5-5-3-3-3-3-3-3-3-3-3-3-3-3-3-3-3-3--|
F#|--1-1-1-1-1-1-1-1-1-1-1-1-1/3-3-3-5-5-5-5-5-5-5-5-5-5-5-5-5-5-5-5--|
B |-------------------------------------------------------------------|

C#|--------------------------------------------------------------------|
G#|--------------------------------------------------------------------|
E |--------------------------------------------------------------------|
B |--------------------------------------------------------------------|
F#|--------------------------------------------------------------------|
B |--0-0-0-0-0-12~--0-0-0-0-12~--8-8/10-10\5-5-5-5~--5~--5-5-7~-5~-3~--|



[1:18 - 1:51]

C#|----------------------------------|------------------------------------|---------|
G#|----------------------------------|------------------------------------|---------|
E |----------------------------------|------------------------------------|---------|
B |----------------------------------|------------------------------------|---------|
F#|--0-0-0---0------0-0-0-000-0---0--|--0-0-0---0------0-0-0-000-0-000-0--|--0-12\--|
B |--0-0-0---0------0-0-0-000-0---0--|--0-0-0---0------0-0-0-000-0-000-0--|--0-12\--|
     . . .   .      . . . ... .   .     . . .   .      . . . ... . ... .     .

C#|--------------------------------|---------------------------------|
G#|--------------------------------|---------------------------------|
E |--------------------------------|---------------------------------|
B |--------------3~----------------|-----------------5~-7~--1-1-1-1--|
F#|--0h1-----------7~----0~--8-----|----3p1--0~-------------1-1-1-1--|
B |------0-0~--0-------0-------5~--|--0----------0-0--------1-1-1-1--|
         .     .       .              .          . .        . . . .

C#|----------------------------------|
G#|----------------------------------|
E |----------------------------------|
B |----------------------------------|
F#|--0-0-0---0------0-0-0-000-0---0--|
B |--0-0-0---0------0-0-0-000-0---0--|
     . . .   .      . . . ... .   .

C#|-------------------------------------------------------------------|
G#|-------------------------------------------------------------------|
E |-------------------------------------------------------------------|
B |--------------3---3---3---3---3---5---5---5---5---8---8---8---8----|
F#|--0h1-----------7---7---7---7---7---7---7---7---7---7---7---7---7--|
B |------0-0~--0------------------------------------------------------|
         .     .

C#|-------------------------------|
G#|-------------------------------|
E |-------------------------------|
B |-----10~---7~-8~-7~------------|
F#|---------8----------0-0-0---0--|
B |--8~----------------0-0-0---0--|
                       . . .   .



[1:51 - 2:13]

C#|-----------------------------------------------------------------------|
G#|-----------------------------------------------------------------------|
E |-----------------------------------------------------------------------|
B |--8-8-8-8-8-8-8-8-8-8-8-8-10-10-10-10-0-0-0-0-0-0-0-0-0-0-0-0-3-3-3-3--|
F#|--8-8-8-8-8-8-8-8-8-8-8-8-10-10-10-10-0-0-0-0-0-0-0-0-0-0-0-0-3-3-3-3--|
B |--8-8-8-8-8-8-8-8-8-8-8-8-10-10-10-10-0-0-0-0-0-0-0-0-0-0-0-0-3-3-3-3--|

C#|-------------------------------------------------------|-----------|-----------|
G#|-------------------------------------------------------|--Guitar1--|--Guitar2--|
E |-------------------------------------------------------|-----------|-----------|
B |--5-5-5-5-5-5-5-5-5-5-5-5-7-7-7-7-0-0-0-0-0-0-0-0-3-3--|-----------|--7-5-7-5--|
F#|--5-5-5-5-5-5-5-5-5-5-5-5-7-7-7-7-0-0-0-0-0-0-0-0-3-3--|-----------|-----------|
B |--5-5-5-5-5-5-5-5-5-5-5-5-7-7-7-7-0-0-0-0-0-0-0-0-3-3--|--7-5-7-5--|-----------|

C#|-------------------------------------------------------------------|
G#|-------------------------------------------------------------------|
E |--3-3-3-3-3-3-3-3-3-3-3-3-3/5-5-5-5-5-5-5-5-5-5-5-5-5-5-5-5-5-5-5--|
B |--3-3-3-3-3-3-3-3-3-3-3-3-3/5-5-5-3-3-3-3-3-3-3-3-3-3-3-3-3-3-3-3--|
F#|--1-1-1-1-1-1-1-1-1-1-1-1-1/3-3-3-5-5-5-5-5-5-5-5-5-5-5-5-5-5-5-5--|
B |-------------------------------------------------------------------|

C#|--------------------------------------------------------------------|
G#|--------------------------------------------------------------------|
E |--------------------------------------------------------------------|
B |--------------------------------------------------------------------|
F#|--------------------------------------------------------------------|
B |--0-0-0-0-0-12~--0-0-0-0-12~--8-8/10-10\5-5-5-5~--5~--5-5-7~-5~-3~--|



[2:13 - 2:23]

C#|-------------------------------------------------------------------|
G#|-------------------------------------------------------------------|
E |-------------------------------------------------------------------|
B |-------------------------------------------------------------------|
F#|--000-0-000-0--0-0--0---0-0-------000-0-0-0-0~--8-------------7h8--|
B |--000-0-000-0--0-0--0---0-0-------000-0-0-0-0~----7-0-7h8-0-8------|
     ... . ... .  . .  .   . .       ... . . . .       .     .

C#|-------------------------------------------------------------|
G#|-------------------------------------------------------------|
E |-------------------------------------------------------------|
B |-------------------------------------------------------------|
F#|--000-0-000-0--0-0--0---0-0-------000-0-0-0-0~--8---------0--|
B |--000-0-000-0--0-0--0---0-0-------000-0-0-0-0~----7-0-7h8-0--|
     ... . ... .  . .  .   . .       ... . . . .       .     .



[2:24 - 2:51]

C#|---------------------------------------------------------------|
G#|---------------------------------------------------------------|
E |---------------------------------------------------------------|
B |---------------------------------------------------------------|
F#|---------------------------------------------------------------|
B |--8-8-8-8--8--8-8--8--10-10-10-10-0-0-0-0--0-0-0--3-3--3-3--3--|

C#|---------------------------------------------------------------|
G#|---------------------------------------------------------------|
E |---------------------------------------------------------------|
B |---------------------------------------------------------------|
F#|---------------------------------------------------------------|
B |--8-8-8-8--8--8-8--8--10-10-10-10-0-0-0-0--0-0-0--3-3--3-3--3--|

C#|--------------------------------------------------------------|
G#|--------------------------------------------------------------|
E |--------------------------------------------------------------|
B |----------------7-------------------------------------10~-7~--|
F#|-------------------3--5-5-------5-----------5------8~---------|
B |--888-8-8--8-8------------0000----0-0-0---0---0--7~-----------|
                             ....            .

C#|-----------------------------------------------------------------------------------|
G#|-----------------------------------------------------------------------------------|
E |-----------------------------------------------------------------------------------|
B |--------------------------------------------------3-3-3-3-3-3-3-3-3-3-3-3-3-3-3-3--|
F#|--12-12-12-12-12-12-12-12-12-12-12-12-12-12-12-12-3-3-3-3-3-3-3-3-3-3-3-3-3-3-3-3--|
B |--8--8--8--8--8--8--8--8--8--8--8--8--10-10-10-10-3-3-3-3-3-3-3-3-3-3-3-3-3-3-3-3--|

C#|-------------------------------------------------------------|
G#|-------------------------------------------------------------|
E |-------------------------------------------------------------|
B |----------------7--------------------------------------------|
F#|-------------------3--5-5-------5-----------5----------------|
B |--888-8-8--8-8------------0000----0-0-0---0---0--0-7~-5~-3~--|
                             ....            .



[2:51 - 3:36]

C#|-----------------------------------------------------------------------|
G#|-----------------------------------------------------------------------|
E |-----------------------------------------------------------------------|
B |--8-8-8-8-8-8-8-8-8-8-8-8-10-10-10-10-0-0-0-0-0-0-0-0-0-0-0-0-3-3-3-3--|
F#|--8-8-8-8-8-8-8-8-8-8-8-8-10-10-10-10-0-0-0-0-0-0-0-0-0-0-0-0-3-3-3-3--|
B |--8-8-8-8-8-8-8-8-8-8-8-8-10-10-10-10-0-0-0-0-0-0-0-0-0-0-0-0-3-3-3-3--|

C#|-------------------------------------------------------|-----------|-----------|
G#|-------------------------------------------------------|--Guitar1--|--Guitar2--|
E |-------------------------------------------------------|-----------|-----------|
B |--5-5-5-5-5-5-5-5-5-5-5-5-7-7-7-7-0-0-0-0-0-0-0-0-3-3--|-----------|--7-5-7-5--|
F#|--5-5-5-5-5-5-5-5-5-5-5-5-7-7-7-7-0-0-0-0-0-0-0-0-3-3--|-----------|-----------|
B |--5-5-5-5-5-5-5-5-5-5-5-5-7-7-7-7-0-0-0-0-0-0-0-0-3-3--|--7-5-7-5--|-----------|

C#|-------------------------------------------------------------------|
G#|-------------------------------------------------------------------|
E |--3-3-3-3-3-3-3-3-3-3-3-3-3/5-5-5-5-5-5-5-5-5-5-5-5-5-5-5-5-5-5-5--|
B |--3-3-3-3-3-3-3-3-3-3-3-3-3/5-5-5-3-3-3-3-3-3-3-3-3-3-3-3-3-3-3-3--|
F#|--1-1-1-1-1-1-1-1-1-1-1-1-1/3-3-3-5-5-5-5-5-5-5-5-5-5-5-5-5-5-5-5--|
B |-------------------------------------------------------------------|

C#|----------------------------------------------------------------------|
G#|----------------------------------------------------------------------|
E |----------------------------------------------------------------------|
B |----------------------------------------------------------------------|
F#|----------------------------------------------------------------------|
B |--0-0-0-0-0-12~--0-0-0-0-12~--8-8/10-10\5-5-5-5~--5~--5~--7~--5~--3~--|



Turn around, it'll be too late...



[END]



************************************

| /   slide up
| ~   held note
| /   slide down
| .   palm mute
| h   hammer-on
| p   pull-off

************************************
comments
print report bad tab
I want to post or [tab]
guest
You may want to rate the tab now too:
select rating
Please do not post tabs as comments. Select "correction" instead!