Oops, an error
Loading. Please wait.

The Flavor Of The Night Tab

476 views 1 this week
no commentswrite comment
1 2 3 4 5
please rate
Autoscroll
+/-
esc
set tempo
stop
WARNING: You are trying to view
                                    content from Ultimate-Guitar.com
                                    in an unauthorized application,
                                    which is prohibited.

                                    Please use an official Ultimate
                                    Guitar Tabs application for iPhone,
                                    iPad or Android to access legitimate
                                    chords, guitar, bass, and drum tabs
                                    from Ultimate-Guitar.com database.

                                    Type "ultimate guitar tabs" in Apple
                                    App Store's or Android Market's
                                    search to find the application.
Band: Itchy Poopzkid 
Song:The Flavor Of The Night
Album:Time To Ignite
von: xx flood xx 
e-mail: guitar_rockstar91@yahoo.de 


Intro/Verse: 								2x
e|-------------------------------------------------------------------|
B|-------------------------------------------------------------------|
G|-------------------------------------------------------------2-----|
D|--7-7-7-0-0--x--x-4-4-4-4-2-2-2-7-7-7-0-0--x--4--4-4-4-4--2--------|
A|--7-7-7-0-0--x--x-4-4-4-4-2-2-2-7-7-7-0-0--x--4--4-4-4-4-----------|
D|--7-7-7-0-0--x--x-4-4-4-4-2-2-2-7-7-7-0-0--x--4--4-4-4-4-----------|

e|-------------------------------------------------------------------|
B|-------------------------------------------------------------------|
G|-------------------------------------------------------------------|
D|--7-7-7-0-0--x--x-4-4-4-4-2-2-2-7-7-7-0-0--x--4--4-4-4-4-2-2-------|
A|--7-7-7-0-0--x--x-4-4-4-4-2-2-2-7-7-7-0-0--x--4--4-4-4-4-2-2-------|
D|--7-7-7-0-0--x--x-4-4-4-4-2-2-2-7-7-7-0-0--x--4--4-4-4-4-2-2-------|

e|----------------------------------|
B|----------------------------------|
G|--7-7-7-7-7-7-7-7-7-7-7-6-6-6-9---|
D|--x-x-x-x-x-x-x-x-x-x-x-x-x-x-x---|
A|--5-5-5-5-5-5-5-5-5-5-5-4-4-4-7---|
D|----------------------------------|

e|-------------------------------------------------------------------|
B|-------------------------------------------------------------------|
G|-------------------------------------------------------------2-----|
D|--7-7-7-0-0--x--x-4-4-4-4-2-2-2-7-7-7-0-0--x--4--4-4-4-4--2--------|
A|--7-7-7-0-0--x--x-4-4-4-4-2-2-2-7-7-7-0-0--x--4--4-4-4-4-----------|
D|--7-7-7-0-0--x--x-4-4-4-4-2-2-2-7-7-7-0-0--x--4--4-4-4-4-----------|

e|-------------------------------------------------------------------|
B|-------------------------------------------------------------------|
G|-------------------------------------------------------------------|
D|--7-7-7-0-0--x--x-4-4-4-4-2-2-2-7-7-7-0-0--x--4--4-4-4-4-2-2-------|
A|--7-7-7-0-0--x--x-4-4-4-4-2-2-2-7-7-7-0-0--x--4--4-4-4-4-2-2-------|
D|--7-7-7-0-0--x--x-4-4-4-4-2-2-2-7-7-7-0-0--x--4--4-4-4-4-2-2-------|

e|-------------------------------------------------------------------|
B|-------------------------------------------------------------------|
G|-------------------------------------------------------------------|
D|--0-0-0-0-0-0-0-0-0-0-0-0-0-0-0-0-2-2-2-2-2-2-2-2-2-2--------------|
A|--0-0-0-0-0-0-0-0-0-0-0-0-0-0-0-0-2-2-2-2-2-2-2-2-2-2--------------|
D|--0-0-0-0-0-0-0-0-0-0-0-0-0-0-0-0-2-2-2-2-2-2-2-2-2-2--------------|


Chorus:
e|-------------------------------------------------------------------|
B|-------------------------------------------------------------------|
G|----------------------------------6-6-6-6-6-6-6-6-6-6-6-6-6-6-6-6--|
D|--7-7-7-7-7-7-7-7-7-7-7-7-7-7-7-7-6-6-6-6-6-6-6-6-6-6-6-6-6-6-6-6--|
A|--7-7-7-7-7-7-7-7-7-7-7-7-7-7-7-7-4-4-4-4-4-4-4-4-4-4-4-4-4-4-4-4--|
D|--7-7-7-7-7-7-7-7-7-7-7-7-7-7-7-7----------------------------------|

e|-------------------------------------------------------------------|
B|-------------------------------------------------------------------|
G|-------------------------------------------------------------------|
D|--4-4-4-4-4-4-4-4-4-4-4-4-4-4-4-4-2-2-2-2-2-2-2-2-2-2-2-2-2-2-2-2--|
A|--4-4-4-4-4-4-4-4-4-4-4-4-4-4-4-4-2-2-2-2-2-2-2-2-2-2-2-2-2-2-2-2--|
D|--4-4-4-4-4-4-4-4-4-4-4-4-4-4-4-4-2-2-2-2-2-2-2-2-2-2-2-2-2-2-2-2--|

e|-------------------------------------------------------------------|
B|-------------------------------------------------------------------|
G|----------------------------------6-6-6-6-6-6-6-6-6-6-6-6-6-6-6-6--|
D|--7-7-7-7-7-7-7-7-7-7-7-7-7-7-7-7-6-6-6-6-6-6-6-6-6-6-6-6-6-6-6-6--|
A|--7-7-7-7-7-7-7-7-7-7-7-7-7-7-7-7-4-4-4-4-4-4-4-4-4-4-4-4-4-4-4-4--|
D|--7-7-7-7-7-7-7-7-7-7-7-7-7-7-7-7----------------------------------|

e|-------------------------------------------------------------------|
B|-------------------------------------------------------------------|
G|-------------------------------------------------------------------|
D|--0-0-0-0-0-0-0-0-0-0-0-0-0-0-0-0-3-3-3-3-3-3-3-3-5-5-5-5-5-5-5-5--|
A|--0-0-0-0-0-0-0-0-0-0-0-0-0-0-0-0-3-3-3-3-3-3-3-3-5-5-5-5-5-5-5-5--|
D|--0-0-0-0-0-0-0-0-0-0-0-0-0-0-0-0-3-3-3-3-3-3-3-3-5-5-5-5-5-5-5-5--|

Verse: 										3x
e|-------------------------------------------------------------------|
B|-------------------------------------------------------------------|
G|-------------------------------------------------------------2-----|
D|--7-7-7-0-0--x--x-4-4-4-4-2-2-2-7-7-7-0-0--x--4--4-4-4-4--2--------|
A|--7-7-7-0-0--x--x-4-4-4-4-2-2-2-7-7-7-0-0--x--4--4-4-4-4-----------|
D|--7-7-7-0-0--x--x-4-4-4-4-2-2-2-7-7-7-0-0--x--4--4-4-4-4-----------|

e|-------------------------------------------------------------------|
B|-------------------------------------------------------------------|
G|-------------------------------------------------------------------|
D|--7-7-7-0-0--x--x-4-4-4-4-2-2-2-7-7-7-0-0--x--4--4-4-4-4-2-2-------|
A|--7-7-7-0-0--x--x-4-4-4-4-2-2-2-7-7-7-0-0--x--4--4-4-4-4-2-2-------|
D|--7-7-7-0-0--x--x-4-4-4-4-2-2-2-7-7-7-0-0--x--4--4-4-4-4-2-2-------|

e|-------------------------------------------------------------------|
B|-------------------------------------------------------------------|
G|-------------------------------------------------------------------|
D|--0-0-0-0-0-0-0-0-0-0-0-0-0-0-0-0-2-2-2-2-2-2-2-2-2-2--------------|
A|--0-0-0-0-0-0-0-0-0-0-0-0-0-0-0-0-2-2-2-2-2-2-2-2-2-2--------------|
D|--0-0-0-0-0-0-0-0-0-0-0-0-0-0-0-0-2-2-2-2-2-2-2-2-2-2--------------|


Chorus:
e|-------------------------------------------------------------------|
B|-------------------------------------------------------------------|
G|----------------------------------6-6-6-6-6-6-6-6-6-6-6-6-6-6-6-6--|
D|--7-7-7-7-7-7-7-7-7-7-7-7-7-7-7-7-6-6-6-6-6-6-6-6-6-6-6-6-6-6-6-6--|
A|--7-7-7-7-7-7-7-7-7-7-7-7-7-7-7-7-4-4-4-4-4-4-4-4-4-4-4-4-4-4-4-4--|
D|--7-7-7-7-7-7-7-7-7-7-7-7-7-7-7-7----------------------------------|

e|-------------------------------------------------------------------|
B|-------------------------------------------------------------------|
G|-------------------------------------------------------------------|
D|--4-4-4-4-4-4-4-4-4-4-4-4-4-4-4-4-2-2-2-2-2-2-2-2-2-2-2-2-2-2-2-2--|
A|--4-4-4-4-4-4-4-4-4-4-4-4-4-4-4-4-2-2-2-2-2-2-2-2-2-2-2-2-2-2-2-2--|
D|--4-4-4-4-4-4-4-4-4-4-4-4-4-4-4-4-2-2-2-2-2-2-2-2-2-2-2-2-2-2-2-2--|

e|-------------------------------------------------------------------|
B|-------------------------------------------------------------------|
G|----------------------------------6-6-6-6-6-6-6-6-6-6-6-6-6-6-6-6--|
D|--7-7-7-7-7-7-7-7-7-7-7-7-7-7-7-7-6-6-6-6-6-6-6-6-6-6-6-6-6-6-6-6--|
A|--7-7-7-7-7-7-7-7-7-7-7-7-7-7-7-7-4-4-4-4-4-4-4-4-4-4-4-4-4-4-4-4--|
D|--7-7-7-7-7-7-7-7-7-7-7-7-7-7-7-7----------------------------------|

e|-------------------------------------------------------------------|
B|-------------------------------------------------------------------|
G|-------------------------------------------------------------------|
D|--0-0-0-0-0-0-0-0-0-0-0-0-0-0-0-0-3-3-3-3-3-3-3-3-5-5-5-5-5-5-5-5--|
A|--0-0-0-0-0-0-0-0-0-0-0-0-0-0-0-0-3-3-3-3-3-3-3-3-5-5-5-5-5-5-5-5--|
D|--0-0-0-0-0-0-0-0-0-0-0-0-0-0-0-0-3-3-3-3-3-3-3-3-5-5-5-5-5-5-5-5--|


Bridge:
e|-------------------------------------------------------------------|
B|-------------------------------------------------------------------|
G|--6~------------7~----------------6~--------------7~---------------|
D|--6~------------7~----------------6~--------------7~---------------|
A|--4~------------5~----------------4~--------------5~---------------|
D|-------------------------------------------------------------------|


PM  * * * * * * * * * * * * * * * * * * * * * * * * * * * * * * * *   2x
e|-------------------------------------------------------------------|
B|-------------------------------------------------------------------|
G|--9-9-9-9-9-9-9-9-9-9-9-9-9-9-9-9-7-7-7-7-7-7-7-7-7-7-7-7-7-7-7-7--|
D|--9-9-9-9-9-9-9-9-9-9-9-9-9-9-9-9-7-7-7-7-7-7-7-7-7-7-7-7-7-7-7-7--|
A|--7-7-7-7-7-7-7-7-7-7-7-7-7-7-7-7-5-5-5-5-5-5-5-5-5-5-5-5-5-5-5-5--|
D|-------------------------------------------------------------------|


Chorus:
e|-------------------------------------------------------------------|
B|-------------------------------------------------------------------|
G|----------------------------------6-6-6-6-6-6-6-6-6-6-6-6-6-6-6-6--|
D|--7-7-7-7-7-7-7-7-7-7-7-7-7-7-7-7-6-6-6-6-6-6-6-6-6-6-6-6-6-6-6-6--|
A|--7-7-7-7-7-7-7-7-7-7-7-7-7-7-7-7-4-4-4-4-4-4-4-4-4-4-4-4-4-4-4-4--|
D|--7-7-7-7-7-7-7-7-7-7-7-7-7-7-7-7----------------------------------|

e|-------------------------------------------------------------------|
B|-------------------------------------------------------------------|
G|-------------------------------------------------------------------|
D|--4-4-4-4-4-4-4-4-4-4-4-4-4-4-4-4-2-2-2-2-2-2-2-2-2-2-2-2-2-2-2-2--|
A|--4-4-4-4-4-4-4-4-4-4-4-4-4-4-4-4-2-2-2-2-2-2-2-2-2-2-2-2-2-2-2-2--|
D|--4-4-4-4-4-4-4-4-4-4-4-4-4-4-4-4-2-2-2-2-2-2-2-2-2-2-2-2-2-2-2-2--|

e|-------------------------------------------------------------------|
B|-------------------------------------------------------------------|
G|----------------------------------6-6-6-6-6-6-6-6-6-6-6-6-6-6-6-6--|
D|--7-7-7-7-7-7-7-7-7-7-7-7-7-7-7-7-6-6-6-6-6-6-6-6-6-6-6-6-6-6-6-6--|
A|--7-7-7-7-7-7-7-7-7-7-7-7-7-7-7-7-4-4-4-4-4-4-4-4-4-4-4-4-4-4-4-4--|
D|--7-7-7-7-7-7-7-7-7-7-7-7-7-7-7-7----------------------------------|

e|-------------------------------------------------------------------|
B|-------------------------------------------------------------------|
G|-------------------------------------------------------------------|
D|--0-0-0-0-0-0-0-0-0-0-0-0-0-0-0-0-3-3-3-3-3-3-3-3-5-5-5-5-5-5-5-5--|
A|--0-0-0-0-0-0-0-0-0-0-0-0-0-0-0-0-3-3-3-3-3-3-3-3-5-5-5-5-5-5-5-5--|
D|--0-0-0-0-0-0-0-0-0-0-0-0-0-0-0-0-3-3-3-3-3-3-3-3-5-5-5-5-5-5-5-5--|

End:									x2
e|-------------------------------------------------------------------|
B|-------------------------------------------------------------------|
G|-------------------------------------------------------------------|
D|--0-0-0-0-0-0-0-0-0-0-0-0-0-0-0-0-3-3-3-3-3-3-3-3-5-5-5-5-5-5-5-5--|
A|--0-0-0-0-0-0-0-0-0-0-0-0-0-0-0-0-3-3-3-3-3-3-3-3-5-5-5-5-5-5-5-5--|
D|--0-0-0-0-0-0-0-0-0-0-0-0-0-0-0-0-3-3-3-3-3-3-3-3-5-5-5-5-5-5-5-5--|

e|-------------------------------------------------------------------|
B|-------------------------------------------------------------------|
G|-------------------------------------------------------------------|
D|--0-0-0-0-0-0-0-0-0-0-0-0-0-0-0-0-3~--------------5~---------------|
A|--0-0-0-0-0-0-0-0-0-0-0-0-0-0-0-0-3~--------------5~---------------|
D|--0-0-0-0-0-0-0-0-0-0-0-0-0-0-0-0-3~--------------5~---------------|

e|-------------------------------------------------------------------|
B|-------------------------------------------------------------------|
G|-------------------------------------------------------------------|
D|--7~---------------------------------------------------------------|
A|--7~---------------------------------------------------------------|
D|--7~---------------------------------------------------------------|
comments
We did not receive enough feedback on this tab! Please rate:
print report bad tab
1 2 3 4 5
I want to post or [tab]
guest
You may want to rate the tab now too:
select rating
Please do not post tabs as comments. Select "correction" instead!