Oops, an error
Loading. Please wait.

Prinsesa Tab

4,787 views 6 this week
no commentswrite comment
1 2 3 4 5
accurate
x 2
add to favorites launch autoscroll
font size
0
reset
Autoscroll
+/-
esc
set tempo
stop
Contributor
Tabbers playing skills
advanced +
WARNING: You are trying to view
                                    content from Ultimate-Guitar.com
                                    in an unauthorized application,
                                    which is prohibited.

                                    Please use an official Ultimate
                                    Guitar Tabs application for iPhone,
                                    iPad or Android to access legitimate
                                    chords, guitar, bass, and drum tabs
                                    from Ultimate-Guitar.com database.

                                    Type "ultimate guitar tabs" in Apple
                                    App Store's or Android Market's
                                    search to find the application.
by francis SHC
09287150674

tuning= e b g d A E

intro-
Guitar1
|-------|--------------|---------------|-------------|---------------|
|-------|--------------|---------------|-------------|---------------|
|-------|--------------|---------------|-------------|--4-----7~-----|
|----7--|------------7-|-------------7-|-------------|--7-----7~-----|
|-/7----|-9^--9^--7----|--9^--9^--7----|-9^--9^--7---|--7-----5~-----|
|-------|--------------|---------------|-------------|--5------------|
Guitar2
|-------|--------------|---------------|-------------|---------------|
|-------|--------------|---------------|-------------|---------------|
|-------|--------------|---------------|-------------|---------7-----|
|-/9-11-|-------/12-11-|---------/9-11-|-------------|--7------7-----|
|-------|--------------|---------------|-------------|--7------5-----|
|-------|--------------|---------------|-------------|--5------------|
Verse-
Guitar
|-x-xx-x-xxxx-x-xxxx-xx-xx-x-xxxx---xxxx-xx-xx-x-xxx-x-xxxx-x--------|
|-7-xx-7-xxxx-7-xxxx-77-xx-7-xxxx-7-xxxx-77-xx-7-xxx-7-xxxx-7--------|
|-7-xx-7-xxxx-7-xxxx-77-xx-7-xxxx-7-xxxx-77-xx-7-xxx-7-xxxx-7--------|
|-7-xx-7-xxxx-7-xxxx-77-xx-7-xxxx-7-xxxx-77-xx-7-xxx-7-xxxx-7--------|
|-x-xx-x-xxxx-x-xxxx-xx-xx-x-xxxx-x-xxxx-xx-xx-x-xxx-x-xxxx-x--------|
|--------------------------------------------------------------------|

|-x-xx-x-xxxx-x-xxxx-xx-xx-x-xxxx---xxxx-xx-xx-x-xxx-x-xxxx-x--------|
|-8-xx-8-xxxx-8-xxxx-88-xx-8-xxxx-8-xxxx-88-xx-8-xxx-8-xxxx-8--------|
|-7-xx-7-xxxx-7-xxxx-77-xx-7-xxxx-7-xxxx-77-xx-7-xxx-7-xxxx-7--------|
|-7-xx-7-xxxx-7-xxxx-77-xx-7-xxxx-7-xxxx-77-xx-7-xxx-7-xxxx-7--------|
|-x-xx-x-xxxx-x-xxxx-xx-xx-x-xxxx-x-xxxx-xx-xx-x-xxx-x-xxxx-x--------|
|--------------------------------------------------------------------|

|-x-xx-x-xxxx-x-xxxx-xx-xx-x-xxxx---xxxx-xx-xx-x-xxx-x-xxxx-x--------|
|-7-xx-7-xxxx-7-xxxx-77-xx-7-xxxx-7-xxxx-77-xx-7-xxx-7-xxxx-7--------|
|-7-xx-7-xxxx-7-xxxx-77-xx-7-xxxx-7-xxxx-77-xx-7-xxx-7-xxxx-7--------|
|-7-xx-7-xxxx-7-xxxx-77-xx-7-xxxx-7-xxxx-77-xx-7-xxx-7-xxxx-7--------|
|-x-xx-x-xxxx-x-xxxx-xx-xx-x-xxxx-x-xxxx-xx-xx-x-xxx-x-xxxx-x--------|
|--------------------------------------------------------------------|

|-x-xx-x-xxxx-x-xxxx-xx-xx-x-xxxx---xxxx-xx-xx-x-xxx-x-xxxx-x--------|
|-8-xx-8-xxxx-8-xxxx-88-xx-8-xxxx-8-xxxx-88-xx-8-xxx-8-xxxx-8--------|
|-7-xx-7-xxxx-7-xxxx-77-xx-7-xxxx-7-xxxx-77-xx-7-xxx-7-xxxx-7--------|
|-7-xx-7-xxxx-7-xxxx-77-xx-7-xxxx-7-xxxx-77-xx-7-xxx-7-xxxx-7--------|
|-x-xx-x-xxxx-x-xxxx-xx-xx-x-xxxx-x-xxxx-xx-xx-x-xxx-x-xxxx-x--------|
|--------------------------------------------------------------------|

|-x-xx-x-xxxx-xx---------|
|-7-xx-7-xxxx-77---------|
|-7-xx-7-xxxx-77---------|
|-7-xx-7-xxxx-77---------|
|-x-xx-x-xxxx-xx---------|
|------------------------|


torotot-
|--------------------------------------------------------------|
|--------------------------------------------------------------|
|--------------------------------------------------------------|
|--------------------------------------------------------------|
|--------------------------------------------------------------|
|--------------------------------------------------------------|

Refrain-
|--------------------------------------------------------------|
|--------------------------------------------------------------|
|-----7-7-7-7-7-7-7-7-7-----6-6-6-6---8-8-8-8------------------|
|-----9-9-9-9-9-9-9-9-9-----7-7-7-7---9-9-9-9------------------|Guitar1&2
|-----7-7-7-7-7-7-7-7-7-----7-7-7-7---9-9-9-9------------------|
|---------------------------5-5-5-5---7-7-7-7------------------|

Guitar1
|-------|--------------|---------------|-------------|---------------|
|-------|--------------|---------------|-------------|---------------|
|-------|--------------|---------------|-------------|--6-----7~-----|
|----7--|------------7-|-------------7-|-------------|--7-----7~-----|
|-/7----|-9^--9^--7----|--9^--9^--7----|-9^--9^--7---|--7-----5~-----|
|-------|--------------|---------------|-------------|--5------------|
Guitar2
|-------|--------------|---------------|-------------|---------------|
|-------|--------------|---------------|-------------|---------------|
|-------|--------------|---------------|-------------|---------7-----|
|-/9-11-|-------/12-11-|---------/9-11-|-------------|--7------7-----|
|-------|--------------|---------------|-------------|--7------5-----|
|-------|--------------|---------------|-------------|--5------------|
 
 
Guitar1&2 palm muted or x
|----------------------------------------------|
|----------------------------------------------|
|----------------------------------------------|
|---7-7-7-7-7-7-7-7-7-7-7----------------------|
|---5-5-5-5-5-5-5-5-5-5-5----------------------|
|----------------------------------------------|
Chorus-
Guitar2
|------------------|----------------|----------------|---------------------|
|------------------|----------------|----------------|---------------------|
|------------------|----------------|----------------|---------------------|
|------------------|----------------|-555555---------|-555555--------------|
|---555555---------|-555555---------|-------777-555--|--------999-888------|
|----------777-555-|--------777-555-|----------------|---------------------|


|-------------------|-----------------------|---------------||------------|
|-------------------|-----------------------|---------------||------------|
|-------------------|-----------------------|---------------||------------|
|-------------------|------------7-xxxxxxxx-|-------------7-||------------|
|-77777777777777777-|-8888888888-7-xxxxxxxx-|-88888888888-7-||-88-10-8-7~-|
|-------------------|-6666666666-5-xxxxxxxx-|-66666666666-5-||-66-8--6-5~-|
repeat Verse,refrain,
Chorus-
|------------------|----------------|----------------|---------------------|
|------------------|----------------|----------------|---------------------|
|------------------|----------------|----------------|---------------------|
|------------------|----------------|-555555---------|-555555--------------|
|---555555---------|-555555---------|-------777-555--|--------999-888------|
|----------777-555-|--------777-555-|----------------|---------------------|

|------------------|-----------------------|---------------||--------------|
|------------------|-----------------------|---------------||--------------|
|------------------|-----------------------|---------------||--------------|
|------------------|------------7-xxxxxxxx-|-------------7-||--------------|
|-7777777777777777-|-8888888888-7-xxxxxxxx-|-88888888888-7-||-88-10-8-7~-8-|
|------------------|-6666666666-5-xxxxxxxx-|-66666666666-5-||-66-8--6-5~-6-|

Outro Verse-
Verse-
Guitar
|-x-xx-x-xxxx-x-xxxx-xx-xx-x-xxxx-x-xxxx-xx-xx-x-xxx-x-xxxx-x--------|
|-8-xx-8-xxxx-8-xxxx-88-xx-8-xxxx-8-xxxx-88-xx-8-xxx-8-xxxx-8--------|
|-8-xx-8-xxxx-8-xxxx-88-xx-8-xxxx-8-xxxx-88-xx-8-xxx-8-xxxx-8--------|
|-8-xx-8-xxxx-8-xxxx-88-xx-8-xxxx-8-xxxx-88-xx-8-xxx-8-xxxx-8--------|
|-x-xx-x-xxxx-x-xxxx-xx-xx-x-xxxx-x-xxxx-xx-xx-x-xxx-x-xxxx-x--------|
|--------------------------------------------------------------------|

|-x-xx-x-xxxx-x-xxxx-xx-xx-x-xxxx---xxxx-xx-xx-x-xxx-x-xxxx-x--------|
|-9-xx-9-xxxx-9-xxxx-99-xx-9-xxxx-9-xxxx-99-xx-9-xxx-9-xxxx-9--------|
|-8-xx-8-xxxx-8-xxxx-88-xx-8-xxxx-8-xxxx-88-xx-8-xxx-8-xxxx-8--------|
|-8-xx-8-xxxx-8-xxxx-88-xx-8-xxxx-8-xxxx-88-xx-8-xxx-8-xxxx-8--------|
|-x-xx-x-xxxx-x-xxxx-xx-xx-x-xxxx-x-xxxx-xx-xx-x-xxx-x-xxxx-x--------|
|--------------------------------------------------------------------|

|-x-xx-x-xxxx-x-xxxx-xx-xx-x-xxxx-x-xxxx-xx-xx-x-xxx-x-xxxx-x--------|
|-8-xx-8-xxxx-8-xxxx-88-xx-8-xxxx-8-xxxx-88-xx-8-xxx-8-xxxx-8--------|
|-8-xx-8-xxxx-8-xxxx-88-xx-8-xxxx-8-xxxx-88-xx-8-xxx-8-xxxx-8--------|
|-8-xx-8-xxxx-8-xxxx-88-xx-8-xxxx-8-xxxx-88-xx-8-xxx-8-xxxx-8--------|
|-x-xx-x-xxxx-x-xxxx-xx-xx-x-xxxx-x-xxxx-xx-xx-x-xxx-x-xxxx-x--------|
|--------------------------------------------------------------------|

|-x-xx-x-xxxx-x-xxxx-xx-xx-x-xxxx---xxxx-xx-xx-x-xxx-x-xxxx-x--------|
|-9-xx-9-xxxx-9-xxxx-99-xx-9-xxxx-9-xxxx-99-xx-9-xxx-9-xxxx-9--------|
|-8-xx-8-xxxx-8-xxxx-88-xx-8-xxxx-8-xxxx-88-xx-8-xxx-8-xxxx-8--------|
|-8-xx-8-xxxx-8-xxxx-88-xx-8-xxxx-8-xxxx-88-xx-8-xxx-8-xxxx-8--------|
|-x-xx-x-xxxx-x-xxxx-xx-xx-x-xxxx-x-xxxx-xx-xx-x-xxx-x-xxxx-x--------|
|--------------------------------------------------------------------|

|-x-xx-x-xxxx-xx---------|
|-8-xx-8-xxxx-88---------|
|-8-xx-8-xxxx-88---------|
|-8-xx-8-xxxx-88---------|
|-x-xx-x-xxxx-xx---------|
|------------------------|

torotot=guitar
|--------------------------------------------------------------|
|--------------------------------------------------------------|
|--------------------------------------------------------------|
|-8888-10101010-12121212-10-8888-10-8--------------------------|
|------------------------------------10-11---------------------|
|--------------------------------------------------------------|


|--------------------------------------------------------------|
|--------------------------------------------------------------|
|--------------------------------------------------------------|
|-10101010-12121212-131313-12--10101010----12-12-----10---8----|
|--------------------------------------------------------------|
|--------------------------------------------------------------|

Refrain-
|--------------------------------------------------------------|
|--------------------------------------------------------------|
|-----8-8-8-8-8-8-8-8-8-----7-7-7-7---9-9-9-9------------------|
|-----101010101010101010----8-8-8-8---10101010-----------------|Guitar1&2
|-----8-8-8-8-8-8-8-8-8-----8-8-8-8---10101010-----------------|
|---------------------------6-6-6-6---8-8-8-8------------------|

Guitar1
|-------|--------------|---------------|-------------|---------------|
|-------|--------------|---------------|-------------|---------------|
|-------|--------------|---------------|-------------|--7-----8~-----|
|----8--|------------8-|-------------8-|-------------|--8-----8~-----|
|-/8----|-10^-10^--8---|-10^-10^--8----|-10^-10^--8--|--8-----6~-----|
|-------|--------------|---------------|-------------|--6------------|
Guitar2
|--------|--------------|---------------|-------------|---------------|
|--------|--------------|---------------|-------------|---------------|
|--------|--------------|---------------|-------------|---------8~----|
|-/10-12-|-------/13-12-|-------/10-12--|-------------|--8------8~----|
|--------|--------------|---------------|-------------|--8------6~----|
|--------|--------------|---------------|-------------|--6------------|

comments
We did not receive enough feedback on this tab! Please rate:
print report bad tab
1 2 3 4 5
I want to post or [tab]
guest
You may want to rate the tab now too:
select rating
Please do not post tabs as comments. Select "correction" instead!