Oops, an error
Loading. Please wait.

Tastes Like Kevin Bacon Tab

ver1
ver1

Whole song

Interactive

More versions @911Tabs.com
13,939 views 18 this week
2 commentsread comments
1 2 3 4 5
excellent!
x 2
Autoscroll
+/-
esc
set tempo
stop
Contributor
Difficulty
Tuning
intermediate
B F# B E G# C#
Hey! There's an official Ultimate Guitar app which is ideal
for learning songs when you're away from computer. Get the app
WARNING: You are trying to view
                                    content from Ultimate-Guitar.com
                                    in an unauthorized application,
                                    which is prohibited.

                                    Please use an official Ultimate
                                    Guitar Tabs application for iPhone,
                                    iPad or Android to access legitimate
                                    chords, guitar, bass, and drum tabs
                                    from Ultimate-Guitar.com database.

                                    Type "ultimate guitar tabs" in Apple
                                    App Store's or Android Market's
                                    search to find the application.
Try not to mind the annoying spacing with one measure per line for the majority of the tab.

Tab credit to Tomer Shor

    Tastes Like Kevin Bacon


                           iwrestledabearonce

       T        T        T        T        T
       |--3--|  |--3--|  |--3--|  |--3--|  |-
       S  S  S  S  S  S  S  S  S  S  S  S  S
C#||------------------------------------------|
G#||--15p-7h-8----------12p-7h-8----------13--|p
E ||-----------14p-7h-8----------12p-7h-8-----|
B ||------------------------------------------|
F#||------------------------------------------|
B ||------------------------------------------|


   T        T        T        T        T
   |--3--|  |--3--|  |--3--|  |--3--|  |--3--
   S  S  S  S  S  S  S  S  S  S  S  S  S  S
---------------------------------------------|
--15p-7h-8----------12p-7h-8----------13p-7h-|
-----------14p-7h-8----------12p-7h-8--------|
---------------------------------------------|
---------------------------------------------|
---------------------------------------------|


   T        T        T        T        T
   |--3--|  |--3--|  |--3--|  |--3--|  |--3--
   S  S  S  S  S  S  S  S  S  S  S  S  S  S
---------------------------------------------|
--15p-7h-8----------12p-7h-8----------13p-7h-|
-----------14p-7h-8----------12p-7h-8--------|
---------------------------------------------|
---------------------------------------------|
---------------------------------------------|


  E  S S E  E  H
------------------------|
------------------------|
------------------------|
--0------------0--------|
--0--0-0-0--0--0--------|
--0--0-0-0--0--0--------|


  Q    Q    Q    Q
----------------------|
----------------------|
----------------------|
--7----6----5----4----|
--6----5----4----3----|
--5----4----3----2----|


   |--3--|  |--3--|  |--3--|  |--3--|  |--3--
   S  S  S  S  S  S  S  S  S  S  S  S  S  S
--17-11-17-11-17-11-18-12-18-12-18-12---------|
--------------------------------------17-11-1-|
----------------------------------------------|
----------------------------------------------|
----------------------------------------------|
----------------------------------------------|


   |--3--|  |--3--|  |--3--|  |--3--|  |--3--
   S  S  S  S  S  S  S  S  S  S  S  S  S  S
--17-11-17-11-17-11-18-12-18-12-18-12---------|
--------------------------------------17-11-1-|
----------------------------------------------|
----------------------------------------------|
----------------------------------------------|
----------------------------------------------|


  |-3-|       |-3-|
  S S S E  E  S S S H
-----------------------------|
-----------------------------|
-----------------------------|
-----------------------------|
--0-0-0-0--L--0-0-0-0--------|
--0-0-0-0--L--0-0-0-0--------|


  |-3-| |-3-| |-3-| |-3-|
  S S S S S S S S S S S S H
-----------------------------------|
-----------------------------------|
-----------------------------------|
-----------------------------------|
--0-0-0-0-0-0-0-0-0-0-0-0-0--------|
--0-0-0-0-0-0-0-0-0-0-0-0-0--------|


  E  S S E  S S E  S S E  S S
------------------------------|
------------------------------|
------------------------------|
------------------------------|
--9--9-9-9--9-9-9--9-9-9--9-9-|
------------------------------|


   E   S  E   S E   E   S E  S E
----------------------------------|
----------------------------------|
----------------------------------|
----------------------------------|
--12--12-11--11-9--11--11-9--9-7--|
----------------------------------|


  E  S S E  S S E  S S E  S S
------------------------------|
------------------------------|
------------------------------|
------------------------------|
------------------------------|
--7--7-7-7--7-7-7--7-7-7--7-7-|


   E   S  E   S E   E   S E  S E
----------------------------------|
----------------------------------|
----------------------------------|
----------------------------------|
--12--12-11--11-9--11--11-9--9-7--|
----------------------------------|


  E  S S E  S S E  S S E  S S
------------------------------|
------------------------------|
------------------------------|
------------------------------|
--5--5-5-5--5-5-5--5-5-5--5-5-|
------------------------------|


   E   S  S  E   S  S  E   S  S  E   S  S
------------------------------------------|
------------------------------------------|
------------------------------------------|
------------------------------------------|
--12--12-12-12--12-12-11--11-11-11--11-11-|
------------------------------------------|


  E  S S E  S S E  S S E  S S
------------------------------|
------------------------------|
------------------------------|
------------------------------|
------------------------------|
--4--4-4-4--4-4-4--4-4-4--4-4-|


  S S S S S S S S S S S S S S S S
----------------------------------|
----------------------------------|
----------------------------------|
----------------------------------|
----------------------------------|
--9-9-9-9-8-8-8-8-7-7-7-7-6-6-6-6-|


  E  S S E  S S E  S S E  S S
------------------------------|
------------------------------|
------------------------------|
------------------------------|
--9--9-9-9--9-9-9--9-9-9--9-9-|
------------------------------|


   E   S  E   S E   E   S E  S E
----------------------------------|
----------------------------------|
----------------------------------|
----------------------------------|
--12--12-11--11-9--11--11-9--9-7--|
----------------------------------|


  E  S S E  S S E  S S E  S S
------------------------------|
------------------------------|
------------------------------|
------------------------------|
------------------------------|
--7--7-7-7--7-7-7--7-7-7--7-7-|


   E   S  E   S E   E   S E  S E
----------------------------------|
----------------------------------|
----------------------------------|
----------------------------------|
--12--12-11--11-9--11--11-9--9-7--|
----------------------------------|


  E  S S E  S S E  S S E  S S
------------------------------|
------------------------------|
------------------------------|
------------------------------|
--5--5-5-5--5-5-5--5-5-5--5-5-|
------------------------------|


   E   S  S  E   S  S  E   S  S  E   S  S
------------------------------------------|
------------------------------------------|
------------------------------------------|
------------------------------------------|
--12--12-12-12--12-12-11--11-11-11--11-11-|
------------------------------------------|


  E  S S E  S S E  S S E  S S
------------------------------|
------------------------------|
------------------------------|
------------------------------|
------------------------------|
--4--4-4-4--4-4-4--4-4-4--4-4-|


  S S S S S S S S S S S S S S S S
----------------------------------|
----------------------------------|
----------------------------------|
----------------------------------|
----------------------------------|
--9-9-9-9-8-8-8-8-7-7-7-7-6-6-6-6-|


  S S S S S S S S S S S S S S S S
----------------------------------|
----------------------------------|
----------------------------------|
----------------------------------|
--1-1---1-1---1-1-1-1---1-1---1-1-|
--2-2---2-2---2-2-2-2---2-2---2-2-|


  S S S S S S S S S S S S S S S S
----------------------------------|
----------------------------------|
----------------------------------|
----------------------------------|
--1-1---1-1---1-1-1-1---1-1---1-1-|
--2-2---2-2---2-2-2-2---2-2---2-2-|


   W          W          W          W
   E.    T T  E.    T T  E.    T T  Q
--29s~---L-x------------------------------|
-------------28s~---L-x------------17~----|
------------------------27s~---L-x-15~----|
------------------------------------------|
------------------------------------------|
------------------------------------------|


  S S S S S S S S S S S S S S S S
----------------------------------|
----------------------------------|
----------------------------------|
----------------------------------|
--1-1---1-1---1-1-1-1---1-1---1-1-|
--2-2---2-2---2-2-2-2---2-2---2-2-|


   TP  TP  TP  TP  TP  TP  TP  TP       TP  T
   T   T   T   T   T   T   T   T  Q     T   T
----------------------------------------------|
---------------------------------------15S-16-|
--14S-15S-16S-17S-18S-19S-16S-17S-------------|
----------------------------------------------|
----------------------------------------------|
----------------------------------------------|


  S S S S S S S S S S S S S S S S
----------------------------------|
----------------------------------|
----------------------------------|
----------------------------------|
--1-1---1-1---1-1-1-1---1-1---1-1-|
--2-2---2-2---2-2-2-2---2-2---2-2-|


   W          W          W          W
   E.    T T  E.    T T  E.    T T  Q
--29s~---L-x------------------------------|
-------------28s~---L-x------------17~----|
------------------------27s~---L-x-15~----|
------------------------------------------|
------------------------------------------|
------------------------------------------|


  S S S S S S S S S S S S S S S S
----------------------------------|
----------------------------------|
----------------------------------|
----------------------------------|
--1-1---1-1---1-1-1-1---1-1---1-1-|
--2-2---2-2---2-2-2-2---2-2---2-2-|


   TP  TP  TP  TP  TP  TP  TP  TP       TP  T
   T   T   T   T   T   T   T   T  Q     T   T
----------------------------------------------|
---------------------------------------15S-16-|
--14S-15S-16S-17S-18S-19S-16S-17S-------------|
----------------------------------------------|
----------------------------------------------|
----------------------------------------------|


  S S S S S S S S H
---------------------------|
---------------------------|
---------------------------|
---------------------------|
--1-1---1-1---1-1-L--------|
--2-2---2-2---2-2-L--------|


  Q    S E.  Q    E  E
------------------------|
------------------------|
------------------------|
------------------------|
--L----1-1---1----1--1--|
--L----2-2---2----2--2--|


  S S S S S S S S H
---------------------------|
---------------------------|
---------------------------|
---------------------------|
--1-1---1-1---1-1-L--------|
--2-2---2-2---2-2-L--------|


  Q    S E.  Q    E  E
------------------------|-------|-------|
------------------------|-------|-------|
------------------------|-------|-------|
------------------------|-------|-------|
--L----1-1---1----1--1--|-------|-------|
--L----2-2---2----2--2--|-------|-------|


                  E  S E  S E  E  S E  S E
-------|-------|----------------------------|
-------|-------|----------------------------|
-------|-------|----------------------------|
-------|-------|----------------------------|
-------|-------|--7--7-7--7-7--7--7-7--7-7--|
-------|-------|--7--7-7--7-7--7--7-7--7-7--|


  E  S E  S E  E  S E  S E
----------------------------|
----------------------------|
----------------------------|
----------------------------|
--7--7-7--7-7--7--7-7--7-7--|
--7--7-7--7-7--7--7-7--7-7--|


  E  S E  S E  E  S E  S E
----------------------------|
----------------------------|
----------------------------|
----------------------------|
--2--2-2--2-0--2--2-2--2-0--|
--2--2-2--2-0--2--2-2--2-0--|


  E  S E  S E  E  S S E  S S
-----------------------------|
-----------------------------|
-----------------------------|
----------------------5------|
--2--2-2--2-0--2------3------|
--2--2-2--2-0--2--0-0----0-0-|


  E  S E  S E  E  S E  S E
----------------------------|
----------------------------|
----------------------------|
----------------------------|
--7--7-7--7-7--7--7-7--7-7--|
--7--7-7--7-7--7--7-7--7-7--|


  E  S E  S E  E  S E  S E
----------------------------|
----------------------------|
----------------------------|
----------------------------|
--7--7-7--7-7--7--7-7--7-7--|
--7--7-7--7-7--7--7-7--7-7--|


  E  S E  S E  E  S E  S E
----------------------------|
----------------------------|
----------------------------|
----------------------------|
--2--2-2--2-0--2--2-2--2-0--|
--2--2-2--2-0--2--2-2--2-0--|


  E  S E  S E  E  S S E  S S
-----------------------------|
-----------------------------|
-----------------------------|
----------------------5------|
--2--2-2--2-0--2------3------|
--2--2-2--2-0--2--0-0----0-0-|


  E  S E  S E  E  S E  S E
----------------------------|
----------------------------|
----------------------------|
----------------------------|
--7--7-7--7-7--7--7-7--7-7--|
--7--7-7--7-7--7--7-7--7-7--|


  E  S E  S E  E  S E  S E
----------------------------|
----------------------------|
----------------------------|
----------------------------|
--7--7-7--7-7--7--7-7--7-7--|
--7--7-7--7-7--7--7-7--7-7--|


  E  S E  S E  E  S E  S E
----------------------------|
----------------------------|
----------------------------|
----------------------------|
--2--2-2--2-0--2--2-2--2-0--|
--2--2-2--2-0--2--2-2--2-0--|


  E  S E  S E  E  S S E  S S
-----------------------------|
-----------------------------|
-----------------------------|
----------------------5------|
--2--2-2--2-0--2------3------|
--2--2-2--2-0--2--0-0----0-0-|


   T
   |---3---|
   S   S   S   E  H.
-------------------------------|
--17p-15p-13h------------------|
--------------14--L------------|
-------------------------------|
-------------------------------|
-------------------------------|


   T              T              T
   |---3---|   |---3--|   |---3--|   |---3---
   S   S   S   S  S   S   S   S  S   S   S
----------------------------------------------|
--17p-13h--------17p-13h--------17p-13h-------|
----------14p-12---------14p-12---------14p-1-|
----------------------------------------------|
----------------------------------------------|
----------------------------------------------|


   T
   |---3---|
   S   S   S   E  H.
-------------------------------|
--17p-15p-13h------------------|
--------------14--L------------|
-------------------------------|
-------------------------------|
-------------------------------|


   T              T              T
   |---3---|   |---3--|   |---3--|   |---3---
   S   S   S   S  S   S   S   S  S   S   S
----------------------------------------------|
--17p-13h--------17p-13h--------17p-13h-------|
----------14p-12---------14p-12---------14p-1-|
----------------------------------------------|
----------------------------------------------|
----------------------------------------------|


   T
   |---3---|
   S   S   S   E  H.
-------------------------------|
--17p-15p-13h------------------|
--------------14--L------------|
-------------------------------|
-------------------------------|
-------------------------------|


   T              T              T
   |---3---|   |---3--|   |---3--|   |---3---
   S   S   S   S  S   S   S   S  S   S   S
----------------------------------------------|
--17p-13h--------17p-13h--------17p-13h-------|
----------14p-12---------14p-12---------14p-1-|
----------------------------------------------|
----------------------------------------------|
----------------------------------------------|


   T
   |---3---|
   S   S   S   E  H.
-------------------------------|
--17p-15p-13h------------------|
--------------14--L------------|
-------------------------------|
-------------------------------|
-------------------------------|


   T              T              T
   |---3---|   |---3--|   |---3--|   |---3---
   S   S   S   S  S   S   S   S  S   S   S
----------------------------------------------|
--17p-13h--------17p-13h--------17p-13h-------|
----------14p-12---------14p-12---------14p-1-|
----------------------------------------------|
----------------------------------------------|
----------------------------------------------|


   ^
   Q    Q    E   E  E   E
---------------------------|
--10----L----L--10-----10--|
---9----L----L------9------|
---7----L----L-------------|
---------------------------|
---------------------------|


  H        E  E  E  E
-----------------------|
--9--------L--------9--|
--8--------L-----8-----|
--6--------L--6--------|
-----------------------|
-----------------------|


   H        E   E   E   E
---------------------------|
--13--------L--13----------|
--12--------L------12------|
--10--------L----------10--|
---------------------------|
---------------------------|


  H        H
--------------------|
--6--------5--------|
--5--------4--------|
--3--------2--------|
--------------------|
--------------------|


   ^
   Q    Q    E   E  E   E
---------------------------|
--10----L----L--10-----10--|
---9----L----L------9------|
---7----L----L-------------|
---------------------------|
---------------------------|


  H        E  E  E  E
-----------------------|
--9--------L--------9--|
--8--------L-----8-----|
--6--------L--6--------|
-----------------------|
-----------------------|


   H        E   E   E   E
---------------------------|
--13--------L--13----------|
--12--------L------12------|
--10--------L----------10--|
---------------------------|
---------------------------|


  H        H
--------------------|
--6--------5--------|
--5--------4--------|
--3--------2--------|
--------------------|
--------------------|


   ^
   Q    Q    E   E  E   E
---------------------------|
--10----L----L--10-----10--|
---9----L----L------9------|
---7----L----L-------------|
---------------------------|
---------------------------|


  H        E  E  E  E
-----------------------|
--9--------L--------9--|
--8--------L-----8-----|
--6--------L--6--------|
-----------------------|
-----------------------|


   H        E   E   E   E
---------------------------|
--13--------L--13----------|
--12--------L------12------|
--10--------L----------10--|
---------------------------|
---------------------------|


                       Harp
  H        H           W
--------------------|-------------------|
--6--------5--------|-------------------|
--5--------4--------|-------------------|
--3--------2--------|-------------------|
--------------------|-------------------|
--------------------|--x----------------|


-------------------|-------------------|
-------------------|-------------------|
-------------------|-------------------|
-------------------|-------------------|
-------------------|-------------------|
-------------------|-------------------|


-------------------|-------------------|
-------------------|-------------------|
-------------------|-------------------|
-------------------|-------------------|
-------------------|-------------------|
-------------------|-------------------|


  |-3-| |-3-| |-3-| |-3-| |-3-| |-3-| |-3-| |
  S S S S S S S S S S S S S S S S S S S S S S
----------------------------------------------|
----------------------------------------------|
----------------------------------------------|
--7-7-7-7-7-7-7-7-7-7-7-7-5-5-5-5-5-5-5-5-5-5-|
----------------------------------------------|
----------------------------------------------|


   |--3--|  |--3--|  |--3--|  |--3--|  |--3--
   S  S  S  S  S  S  S  S  S  S  S  S  S  S
----------------------------------------------|
----------------------------------------------|
----------------------------------------------|
--10-10-10-10-10-10-10-10-10-10-10-10-12-12-1-|
----------------------------------------------|
----------------------------------------------|


  |-3-| |-3-| |-3-| |-3-| |-3-| |-3-| |-3-| |
  S S S S S S S S S S S S S S S S S S S S S S
----------------------------------------------|
----------------------------------------------|
----------------------------------------------|
--7-7-7-7-7-7-7-7-7-7-7-7-5-5-5-5-5-5-5-5-5-5-|
----------------------------------------------|
----------------------------------------------|


   |--3--|  |--3--|  |--3--|  |--3--|  |--3--
   S  S  S  S  S  S  S  S  S  S  S  S  S  S
----------------------------------------------|
----------------------------------------------|
----------------------------------------------|
--10-10-10-10-10-10-10-10-10-10-10-10-12-12-1-|
----------------------------------------------|
----------------------------------------------|


  S S S S S S S S  E.   E.   E
--------------------------------|
--------------------------------|
------------------14---14---14--|
--------------------------------|
--0-0-0-0-0-0-0-0-12---12---12--|
--0-0-0-0-0-0-0-0---------------|


  S S S S  E  S S E.  E.  E
-----------------------------|
-----------------------------|
----------17------9---9---9--|
-----------------------------|
--0-0-0-0-15--0-0-7---7---7--|
--0-0-0-0-----0-0------------|


  E.  E.  E  S S S S  E  E
----------------------------|
----------------------------|
--9---9---9----------10-----|
----------------------------|
--7---7---7--0-0-0-0--8--0--|
-------------0-0-0-0-----0--|


  S S S S S S S S  E.   E.   E
--------------------------------|
--------------------------------|
------------------14---14---14--|
--------------------------------|
--0-0-0-0-0-0-0-0-12---12---12--|
--0-0-0-0-0-0-0-0---------------|


  S S S S  E  S S E.  E.  E
-----------------------------|
-----------------------------|
----------17------9---9---9--|
-----------------------------|
--0-0-0-0-15--0-0-7---7---7--|
--0-0-0-0-----0-0------------|


  E.  E.  E  S S S S  E  E
----------------------------|
----------------------------|
--9---9---9----------10-----|
----------------------------|
--7---7---7--0-0-0-0--8--0--|
-------------0-0-0-0-----0--|


  S S S S S S S S  E.   E.   E
--------------------------------|
--------------------------------|
------------------14---14---14--|
--------------------------------|
--0-0-0-0-0-0-0-0-12---12---12--|
--0-0-0-0-0-0-0-0---------------|


  S S S S  E  S S E.  E.  E
-----------------------------|
-----------------------------|
----------17------9---9---9--|
-----------------------------|
--0-0-0-0-15--0-0-7---7---7--|
--0-0-0-0-----0-0------------|


  E.  E.  E  S S S S  E  E
----------------------------|
----------------------------|
--9---9---9----------10-----|
----------------------------|
--7---7---7--0-0-0-0--8--0--|
-------------0-0-0-0-----0--|


  S S S S S S S S  E.   E.   E
--------------------------------|
--------------------------------|
------------------14---14---14--|
--------------------------------|
--0-0-0-0-0-0-0-0-12---12---12--|
--0-0-0-0-0-0-0-0---------------|


  S S S S  E  S S E.  E.  E
-----------------------------|
-----------------------------|
----------17------9---9---9--|
-----------------------------|
--0-0-0-0-15--0-0-7---7---7--|
--0-0-0-0-----0-0------------|


  E.  E.  E  S S S S  E  E
----------------------------|
----------------------------|
--9---9---9----------10-----|
----------------------------|
--7---7---7--0-0-0-0--8--0--|
-------------0-0-0-0-----0--|


  |3|     |3|          |3|
  S E  E  S E  E  Q    S E  E
-------------------------------|
-------------------------------|
------------------3------------|
-------------------------------|
--0-0--L--0-0--L--1----0-0--L--|
--0-0--L--0-0--L-------0-0--L--|


  S S S S S S S S S S T  T  T  T
---------------------------------|
---------------------------------|
---------------------------------|
---------------------------------|
--0-0-0-0-0-0-0-0-0-0-1h-4p-1p-0-|
--4-4-4-4-3-3-3-3-2-2------------|


  |3|     |3|
  S E  E  S E  E  Q
-----------------------|
-----------------------|
------------------3----|
-----------------------|
--0-0--L--0-0--L--1----|
--0-0--L--0-0--L-------|


   T  T  T  T  T  T  T  T T  T T  T T T T T T
----------------------------------------------|
----------------------------------------------|
----------------------------------------------|
--12-15-12-15-11-14-11-14-7-10-7-10-6-9-6-9---|
----------------------------------------------|
--------------------------------------------0-|


  |3|          |3|
  S E  E  Q    S E  E  T T T T E   S  S  S  S
----------------------------------------------|
----------2--------------------2--10-11--7-10-|
----------3--------------------3--13-14-10-13-|
----------------------------------------------|
--0-0--L--1----0-0--L----------1--------------|
--0-0--L-------0-0--L--0-0-0-0----------------|


  |3|     |3|
  S E  E  S E  E  H
---------------------------|
------------------2--------|
------------------3--------|
---------------------------|
--0-0--L--0-0--L--1--------|
--0-0--L--0-0--L-----------|


  W
-------------------||
--L----------------||
--L----------------||
-------------------||
--L----------------||
-------------------||

LEGEND -
L - tied note
x - dead note
PH - pitch harmonic
h - hammer on
p - pull off
b - bend
comments
We did not receive enough feedback on this tab! Please rate:
print report bad tab
1 2 3 4 5
2 comments total.
0 reply
me___13 wrote on July 11 2010, 07:50 am

I'm not sure if its my browser or the site, but it seems to have clipped off bits of your tab. Just saying, you should maybe report this to the site. Or maybe i need a new computer. Epic tab though.

+2 reply
rebornmaster9 wrote on August 25 2011, 01:53 am

29 frets? wtf

I want to post or [tab]
guest
You may want to rate the tab now too:
select rating
Please do not post tabs as comments. Select "correction" instead!