Oops, an error
Loading. Please wait.

Lepaskan Diriku Bass Tab

ver1
ver1

Whole song

Interactive

More versions @911Tabs.com
24,517 views 25 this week
no commentswrite comment
1 2 3 4 5
please rate
Autoscroll
+/-
esc
set tempo
stop
Contributor
WARNING: You are trying to view
                                    content from Ultimate-Guitar.com
                                    in an unauthorized application,
                                    which is prohibited.

                                    Please use an official Ultimate
                                    Guitar Tabs application for iPhone,
                                    iPad or Android to access legitimate
                                    chords, guitar, bass, and drum tabs
                                    from Ultimate-Guitar.com database.

                                    Type "ultimate guitar tabs" in Apple
                                    App Store's or Android Market's
                                    search to find the application.
                                Lepaskan diriku - J Rock                                


                                            
Tuning:Standard




                             H        E  E     E    E   
G||-------|-------|-------|----------------------------|
D||-------|-------|-------|----------------------------|
A||-------|-------|-------|--------------3s--/15s--\3--|
E||-------|-------|-------|----------------------------|


  E  E  E  E  E  E  E  E     E  E  E  E  E  E  Q      
--------------------------|--------------------------|
--------------------------|--------------------------|
--3--3--3--3--3-----2-----|--3--3--3--3--3--3--3/----|
-----------------3-----3--|--------------------------|


   E   E   E   E   E   E   E   E      E   E   E   E   E   E   E   E   
----------------------------------|------12----------12--12----------|
--10--10--10--10--10--10--10--10--|--10------10--10----------10--10--|
----------------------------------|----------------------------------|
----------------------------------|----------------------------------|


  E  E  E  E  E  E  E  E     E  E  E  E  E  E  Q      
--------------------------|--------------------------|
--------------------------|--------------------------|
--7--7--7--7--7--7-----7--|--7--7--7--7--7--7--7/----|
--------------------7-----|--------------------------|


   E   E   E   E   E   E   E   E      E   E   E   E   E   E   E   E   
----------------------------------|----------------------------------|
----------------------------------|----------------------------------|
--10--10--10--10--10--10--10--10--|--10--10--10--10--10------10------|
----------------------------------|----------------------10------10--|


  Q    E  E  E  E  E  E     E  E  E  E  E  E  E  E     E  E  E  E  E  E  E  E   
-------------------------|--------------------------|--------------------------|
-------------------------|-----------5--5-----------|--------------------------|
-------3--3--3--3--3--3--|--3--3--3--------3--5--6--|--7--7--7--7--7--7--7--7--|
-------------------------|--------------------------|--------------------------|


  E  E  E  Q    E  E  E     E  E  E  E  E  E  E  E     E  E  E  E  E  E  E  E   
-------------------------|--------------------------|--------------------------|
-------------------------|--------------------------|--------------------------|
--7--8--7--7----7--------|--------------------------|--------------------------|
-------------------7--0--|--1--1--0--1--1--1--0--1--|--1--1--0--1--1--1--0--1--|


  E  E  E  E  E  E  E  E     E  E  E  E  E  E  E  E     Q    E  E  E  E  E  E   
--------------------------|--------------------------|-------------------------|
--------------------------|--------------------------|-------------------------|
--------------------------|-----2-----3--3--2-----2--|-------3--3--3--3--3--3--|
--4--4--4--4--4--4--4--3--|--3-----3-----------3-----|-------------------------|


  E  E  E  E  E  E  E  E     E  E  E  E  E  E  E  E     E  E  E  Q    E  E  E   
--------------------------|--------------------------|-------------------------|
-----------5--5-----------|--------------------------|-------------------------|
--3--3--3--------3--5--6--|--7--7--7--7--7--7--7--7--|--7--8--7--7----7--------|
--------------------------|--------------------------|-------------------7--0--|


  E  E  E  E  E  E  E  E     E  E  E  E  E  E  E  E   
--------------------------|--------------------------|
--------------------------|--------------------------|
--------------------------|--------------------------|
--1--1--0--1--1--1--0--1--|--1--1--0--1--1--1--0--1--|


  E  E  E  E  E  E  E  E     E  E  E  E  E  E  E  E   
--------------------------|--------------------------|
--------------------------|--------------------------|
--------------------------|--------2-----3-----2-----|
--4--4--4--4--4--4--4--3--|--3--3-----3-----3-----3--|


  E  E  E  E  E  E  E  E     E  E  E  E  E  E  E  E   
--------------------------|--------------------------|
--------------------------|-----7--7--5--5-----------|
--7--x--7--x--7-----7-----|-----------------7--7-----|
-----------------7-----5--|--L--------------------5--|


  E  E  E  E  E  E  E  E     E  E  E  E  E  E  E  E   
--------------------------|--------------------------|
--------------------------|--------------------------|
--5--x--5--x--5-----5-----|--------2-----3--2-----2--|
-----------------5-----3--|--L--3-----3--------3-----|


  E  E  E  E  E  E  E  E     E  E  E  E  E  E  E  E   
--------------------------|--------------------------|
--------------------------|-----7--7--5--5-----------|
--7--x--7--x--7-----7-----|-----------------7--7-----|
-----------------7-----5--|--L--------------------5--|


  E  E  E  E  E  E  E  E     E  E  E  E  E  E  E  E     E  E  Q    E  E  E  E   
--------------------------|--------------------------|-------------------------|
--------------------------|--------------------------|-------------------------|
--5--0--3--5--5--0--3--5--|--5--0--3--5--5--0--3--5--|-------------------------|
--------------------------|--------------------------|--6--x--6----6--6--5--3--|


  E  E  Q    E  E  E  E       E   E  H.              E  E  E  E  E  E  E  E   
-------------------------|------------------------|--------------------------|
-------------------------|------------------------|--------------------------|
-------------------------|------------------------|--3--3--3--3--3--3--3--3--|
--3--x--3----3--3--3--3--|--/15s--3---------------|--------------------------|


  E  E  E  E  E  E  E  E     E  E  E  E  E  E  E  E   
--------7--5--L--4--0-----|--------------------------|
-----5-----------------0--|--------------------------|
--3-----------------------|--2--2--2--2--2--2--2--2--|
--------------------------|--------------------------|


  E  E  E  E  E  E  E  E     E  E  E  E  E  E  E  E   
--------7--5--L--4--0-----|--------------------------|
-----5-----------------0--|--------------------------|
--3-----------------------|--1--1--1--1--1--3--1--0--|
--------------------------|--------------------------|


  E  E  E  E  E  E  E  E     E  E  E  E  E  E  E  E   
--------------------------|--------------------------|
--------------------------|--------------------------|
--0--0--0--0--3--0--3--0--|--5--5--5--5--5--0--3--5--|
--------------------------|--------------------------|


  E  E  E  E  E  E  E  E     Q    E  E  E  Q    E     E  E  E  E  E  E  E  E   
--------------------------|------------------------|--------------------------|
--------------------------|-------7--7-----3----5--|--L--0--3--3--5--2-----0--|
--L--0--3--5--0--3--5--0--|--5----------5----------|--------------------2-----|
--------------------------|------------------------|--------------------------|


  E.   E  E  S E  E  E  E     E  E  E  E  E  E  E  E     Q    E  E  E  Q    E   
---------------------------|--------------------------|------------------------|
--2s---9--9----7--7--5--7--|--7--5--5--3--3--2--3--5--|-------7--7-----3----5--|
---------------------------|--------------------------|--5----------5----------|
---------------------------|--------------------------|------------------------|


  E  E  E  E  E  E  E  E     E  E  E  E  E  E  E  E   
--------------------------|--------------------------|
--5--3--3--2--2--3--3--5--|--------------------------|
--------------------------|--3--3--3--3--3--3--3--3--|
--------------------------|--------------------------|


  E  E  E  E  E   E  E   E      W                 
----------------------------|--------------------|
---------------------9------|--10----------------|
--3--3--3--3--3--10-----10--|--------------------|
----------------------------|--------------------|


   E   E  E   E   E  E   E  E     E  E  E  H        E   
--12--10--9--------------------|-----------------------|
-------------12--10--9---------|-----------------------|
------------------------10--0--|--3-----2--3-----------|
-------------------------------|-----3--------------3--|


  E  E  E  Q    E  E  E     E  E  E  H        E     E  E  E  H        E   
-------------------------|-----------------------|-----------------------|
-------------------------|-----------------------|-----------------------|
--3-----2--3----3--5--6--|--7--------7-----------|--7--------7-----------|
-----3-------------------|-----x--7-----------7--|-----x--7-----------0--|


  E  E  E  H        E     E  E  E  H        E     E  E  E  H        E   
-----------------------|-----------------------|-----------------------|
-----------------------|-----------------------|-----------------------|
-----------------------|-----------------------|-----------------------|
--1--0--1--1--------0--|--1--0--1--1--------3--|--4--0--3--4--------1--|


  E  E  E  E  E  E  E  E     E  E  E  H        E     E  E  E  Q    E  E  E   
--------------------------|-----------------------|-------------------------|
--------------------------|-----------------------|-------------------------|
-----------2--2-----2-----|--3-----2--3-----------|--3-----2--3----3--5--6--|
--3--x--3--------3-----3--|-----3--------------3--|-----3-------------------|


  E  E  E  H        E     E  E  E  H        E     E  E  E  H        E   
-----------------------|-----------------------|-----------------------|
-----------------------|-----------------------|-----------------------|
--7--------7-----------|--7--------7-----------|-----------------------|
-----x--7-----------7--|-----x--7-----------0--|--1--0--1--1--------0--|


  E  E  E  H        E     E  E  E  H        E     E  E  E  E  E  E  E  E   
-----------------------|-----------------------|--------------------------|
-----------------------|-----------------------|--------------------------|
-----------------------|-----------------------|-----------2--2-----2-----|
--1--0--1--1--------3--|--4--0--3--4--------1--|--3--x--3--------3-----3--|


  E  E  E  E  E  E  E  E     E  E  E  E  E  E  E  E   
--------------------------|--------------------------|
--------------------------|--------------------------|
--7--x--7--x--7-----7-----|-----------------------7--|
-----------------7-----5--|--x--5--x--0--5--0--5-----|


  E  E  E  E  E  E  E  E     E  E  E  E  E  E  E  E   
--------------------------|--------------------------|
--------------------------|--------------------------|
--5--x--5--x--5-----5-----|--------------------5--6--|
-----------------5-----3--|--x--3--x--0--3--0--------|


  E  E  E  E  E  E  E  E     E  E  E  E  E  E  E  E   
--------------------------|--------------------------|
--------------------------|--------------------------|
--7--x--7--x--7-----7-----|--------------------------|
-----------------7-----5--|--x--5--x--0--5--0--5--0--|


  E  E  E  E  E  E  E   E     E  E    E   E  E   E  E   E   
--------------------9p--7--|--L----------------------------|
-----------------5---------|-----7h--10p--9--L------9------|
--5--0--3--5--5------------|--------------------10-----10--|
---------------------------|-------------------------------|


  E  E  E  E  E  E  E  E     E  E  E  E  E  E  E  E   
--------------------------|--------------------------|
--------------------------|--------------------------|
--------------------------|--------------------------|
--6--6--6--6--6--5--4--3--|--L--3--3--3--3--3--3--3--|


  E    S  S E  E  E  E  E  E     E  E  E  E  E  E  E  E   
------------------------------|--------------------------|
------------------------------|--------------------------|
------------------------------|--3--3--3--3--3--3--3--3--|
--3s--15s-3-------------------|--------------------------|


  E  E  E  E  E  E  E  E     E  E  E  E  E  E  E  E   
--------7--5--L--4--0-----|--------------------------|
-----5-----------------0--|--------------------------|
--3-----------------------|--2--2--2--2--2--2--2--2--|
--------------------------|--------------------------|


  E  E  E  E  E  E  E  E     E  E  E  E  E  E  E  E   
--------7--5--L--4--0-----|--------------------------|
-----5-----------------0--|--------------------------|
--3-----------------------|--1--1--1--1--1--3--1--0--|
--------------------------|--------------------------|


  E  E  E  E  E  E  E  E     E  E  E  E  E  E  E  E   
--------------------------|--------------------------|
--------------------------|--------------------------|
--0--0--0--0--3--0--3--0--|--5--5--5--5--5--0--3--5--|
--------------------------|--------------------------|


  E  E  E  E  E  E  E  E     Q    E  E  E  Q    E     E  E  E  E  E  E  E  E   
--------------------------|------------------------|--------------------------|
--------------------------|-------7--7-----3----5--|--L--0--3--3--5--2-----0--|
--L--0--3--5--0--3--5--0--|--5----------5----------|--------------------2-----|
--------------------------|------------------------|--------------------------|


  E.   E  E  S E  E  E  E     E  E  E  E  E  E  E  E     Q    E  E  E  Q    E   
---------------------------|--------------------------|------------------------|
--2s---9--9----7--7--5--7--|--7--5--5--3--3--2--3--5--|-------7--7-----3----5--|
---------------------------|--------------------------|--5----------5----------|
---------------------------|--------------------------|------------------------|


  E  E  E  E  E  E  E  E     Q    E  E  E  E  E   E   
--------------------------|--------------------------|
--5--3--3--2--2--3--3--5--|-------2-----3--2-----10--|
--------------------------|--3-------3--------3------|
--------------------------|--------------------------|


  E   E   E   E  E  E  E  E     E  E  E  E  E  E  E  E   
-----------------------------|--------------------------|
--L--10--12--10--9--5--------|--------------------------|
-----------------------7--5--|--3-----3--------3--3-----|
-----------------------------|--------------------------|


  E  E  E  E  E  E  E   E     E  E  E  E  E  E  E   E   
---------------------------|---------------------------|
---------------------------|---------------------------|
--3--3--3--3-----3--3S-----|--7-----7-----7--7--7S-----|
---------------------------|---------------------------|


   E   E   E   E   E   E   E   E     E  E  E  E  E  E  E  E   
----------------------------------|--------------------------|
----------------------------------|--------------------------|
--10--10--10--10--10--10--10--10--|--------------------------|
----------------------------------|--4--4--4--4--4--4--4--4--|


  E  E  E  E  E  E   E  E     E  E  E  E  E  E  E  E   
---------------------------|--------------------------|
---------------------------|--------------------------|
---------------------------|--------------------------|
--4--4--4--4--4--4--11--4--|--6--6--6--6--6--6--6--6--|


  E  E  E  E  E  E  E  E     Q    Q    E  E  E  E     Q    Q    E  E  E  E   
--------------------------|-------8-------------8--|-------8-------------8--|
--------------------------|------------------8-----|------------------8-----|
--------5--5--6--5-----5--|--6---------6--6--------|--6---------6--6--------|
--6--6--------------6-----|------------------------|------------------------|


  E  E  E  E  E  E  E  E     Q    Q    E  E    E    E   
--------------------------|----------------------------|
--------5--L-----------5--|-------5--------------------|
--------------------5-----|----------------------------|
--3--L--------3--3--------|--3---------0--3s--15\---L--|


  E  E  E  E  E  E  E  E     E  E  E  E  E  E  E  E   
--------------------------|--------------------------|
--------------------------|--------------------------|
--------6-----------6-----|--------6--------3--------|
--4--4-----4--4--4-----4--|--4--4-----4--4-----6--4--|


  E  E  E  E  E  E  E   E     E  E  E  E  E  E  E  E   
---------------------------|--------------------------|
---------------------------|--------------------------|
--------5-----5--6--5s--8--|--8--6--6--5--5--6--5-----|
--6--6-----6---------------|-----------------------6--|


  E  E  E  E  E  E  E  E      E   E  E   E   E  E   E   E   
--------------------------|---------------------9--10--12--|
--------------------------|----------9--10--12-------------|
--------------------------|--10--12------------------------|
--3--3--3--3--3--3--3--3--|--------------------------------|


   W                                        E   E   E   E   E   E   E   E   
--------------------|-------------------|----------------------------------|
--------------------|-------------------|----------------------------------|
--10----------------|-------------------|--15--15--15--15--15--15--15--15--|
--------------------|-------------------|----------------------------------|


   E   E   E   E   E   E   E   E      E   E   E   E   E   E   E   E   
----------------------------------|----------------------------------|
----------------------------------|----------------------------------|
--15------14--15------14--15------|--14--14--14--14--14--14--14--14--|
------15----------15----------15--|----------------------------------|


   E   E   E   E   E   E   E   E      E   E   E   E   E   E   E   E   
----------------------------------|----------------------------------|
----------------------------------|----------------------------------|
--14------12--14--14------14------|--13--13--13--13------15--13--12--|
------13--------------13------13--|------------------13--------------|


   E   E   E   E   E   E   E   E      E   E   E   E   E   E   E   E   
----------------------------------|----------------------------------|
----------------------------------|----------------------------------|
--12--12--12--12--12--12----------|--------------15----------15------|
--------------------------12--12--|--13--13--13------13--13------13--|


   E   E   E   E   E   E   E   E     Q    E  E  E  Q    E   
----------------------------------|------------------------|
----------------------------------|-------7--7-----3----5--|
--------------15----------15------|--5----------5----------|
--13--13--13------13--13------13--|------------------------|


  E  E  E  E  E  E  E  E     E.   E  E  S E  E  E  E   
--------------------------|---------------------------|
--L--0--3--3--5--2-----0--|--2s---9--9----7--7--5--7--|
--------------------2-----|---------------------------|
--------------------------|---------------------------|


  E  E  E  E  E  E  E  E     Q    E  E  E  Q    E     E  E  E  E  E  E  E  E   
--------------------------|------------------------|--------------------------|
--7--5--5--3--3--2--3--5--|-------7--7-----3----5--|--5--3--3--2--2--3--3--5--|
--------------------------|--5----------5----------|--------------------------|
--------------------------|------------------------|--------------------------|


  Q    E  E  E  E  E   E     E   E   E   E  E  E  E  E   
--------------------------|-----------------------------|
-------2-----3--2-----10--|--L--10--12--10--9--5--------|
--3-------3--------3------|-----------------------7--5--|
--------------------------|-----------------------------|


  E  E  E  E  E  E  E  E     E  E  E  E  E  E  E  E   
--------------------------|--------7--5--L--4--0-----|
--------------------------|-----5-----------------0--|
--3--3--3--3--3--3--3--3--|--3-----------------------|
--------------------------|--------------------------|


  E  E  E  E  E  E  E  E     E  E  E  E  E  E  E  E   
--------------------------|--------7--5--L--4--0-----|
--------------------------|-----5-----------------0--|
--2--2--2--2--2--2--2--2--|--3-----------------------|
--------------------------|--------------------------|


  E  E  E  E  E  E  E  E     E  E  E  E  E  E  E  E   
--------------------------|--------------------------|
--------------------------|--------------------------|
--1--1--1--1--1--3--1--0--|--0--0--0--0--3--0--3--0--|
--------------------------|--------------------------|


  E  E  E  E  E  E  E  E     E  E  E  E  E  E  E  E     E  E  Q    E  E  E  E   
--------------------------|--------------------------|-------------------------|
--------------------------|--------------------------|----------------------5--|
--5--5--5--5--5--0--3--5--|--L--0--3--5--0--3--5--0--|--------5----5--0--5-----|
--------------------------|--------------------------|-------------------------|


  E  E  E  E  E  E  E  E     E.   E  E  S E  E  E  E   
--------------------------|---------------------------|
--L-----3--3--5--3-----0--|--2s---9--9----7--7--5--7--|
-----5--------------2-----|---------------------------|
--------------------------|---------------------------|


  E  E  E  E  E  E  E  E     Q    E  E  E  Q    E     E  E  E  E  E  E  E  E   
--------------------------|------------------------|--------------------------|
--7--5--5--3--3--2--3--5--|-------7--7-----3----5--|--5--3--3--2--2--3--3--5--|
--------------------------|--5----------5----------|--------------------------|
--------------------------|------------------------|--------------------------|


  E  E  E  E  E  E  Q         E   E  E   E  H           W                 
--------------------------|--------------------------|-------------------|
--------------------------|--10------9--10--L--------|--L----------------|
--3-----3-----3--3--3/----|------10------------------|-------------------|
--------------------------|--------------------------|-------------------|


-----------||
-----------||
-----------||
-----------||




Duration Legend
---------------
W - whole
H - half
Q - quarter
E - 8th
S - 16th
T - 32nd
X - 64th
. - note dotted
|-n-|  - n-tuplets


Tablature Legend
----------------
L - tied note
x - dead note
g - grace note
(n) - ghost note
> - accentuded note
NH - natural harmonic
AH - artificial harmonic
TH - tapped harmonic
SH - semi harmonic
PH - pitch harmonic
h - hammer on
p - pull off
b - bend
br - bendRelease
pb - preBend
pbr - preBendRelease
brb - bendReleaseBend
\n/ - tremolo bar dip
\n - tremolo bar dive
-/n - tremolo bar Release up
/n\ - tremolo bar inverted dip
/n - tremolo bar return
-\n - tremolo bar Release down
S - shift slide
s - legato slide
/ -  slide into from below or out of upwards
\ -  slide into from above or out of downwards
~ - vibrato
W - wide vibrato
tr - trill
TP - tremolo picking
T - tapping
S - slap
P - pop
< - fade in
^ - brush up
v - brush down

Tab by:Ardie
comments
We did not receive enough feedback on this tab! Please rate:
print report bad tab
1 2 3 4 5
I want to post or [tab]
guest
You may want to rate the tab now too:
select rating
Please do not post tabs as comments. Select "correction" instead!