Oops, an error
Loading. Please wait.

Im Shakin Tab

ver4
ver4

Whole song

Interactive

More versions @911Tabs.com
25,780 views 168 this week
4 commentsread comments
1 2 3 4 5
excellent!
x 39
Autoscroll
+/-
esc
set tempo
stop
Contributor
Hey! There's an official Ultimate Guitar app which is ideal
for learning songs when you're away from computer. Get the app
WARNING: You are trying to view
                                    content from Ultimate-Guitar.com
                                    in an unauthorized application,
                                    which is prohibited.

                                    Please use an official Ultimate
                                    Guitar Tabs application for iPhone,
                                    iPad or Android to access legitimate
                                    chords, guitar, bass, and drum tabs
                                    from Ultimate-Guitar.com database.

                                    Type "ultimate guitar tabs" in Apple
                                    App Store's or Android Market's
                                    search to find the application.
|---------------------------------------|
|---------------------------------------|
|------------------------------0--------|
|---1-2---2--1-2----2---1-2-----2-------| x2
|-2--------2---------2-----------2------|
|----------------------------------0----|

|-------------------|
|-------------------|
|---------1---------|
|---------2---------|
|---------2---------|
|---------0---------|
When your touching my hand and talk sweet talk, I got a knockin in my knees and a wabble 
to my walk. And I'm tremlin

|---------------------------------------|
|---------------------------------------|
|------------------------------0--------|
|---1-2---2--1-2----2---1-2-----2-------|
|-2--------2---------2-----------2------|
|----------------------------------0----|
Thats right, you got me shakin



|-------------------|
|-------------------|
|---------1---------|
|---------2---------|
|---------2---------|
|---------0---------|
When you take me in your arms and talk romance, my heart start doin that St.Vitus' dance. 
And I'm shakin

|---------------------------------------|
|---------------------------------------|
|------------------------------0--------|
|---1-2---2--1-2----2---1-2-----2-------|
|-2--------2---------2-----------2------|
|----------------------------------0----|



|-----------------------------------|
|-----------------------------------|
|---------------------------4-------|
|---------2-----------------4-------|
|---------2-----------------2-------|
|---------0-------------------------|
Early in the morning time. Late in the middle of the night



|-------------------------------------------------------------|
|-------------------------------------------------------------|
|-------------------------------------------------------------|
|----7-------------------------------------5------------------|
|----7-------------------------------------5------------------|
|----5-------------------------------------3------------------|
Whenever this chill comes over me, I wanna hug with all my might, thats right. and I'm sweatin'

|---------------------------------------|
|---------------------------------------|
|------------------------------0--------|
|---1-2---2--1-2----2---1-2-----2-------| x2
|-2--------2---------2-----------2------|
|----------------------------------0----|
Oh, yeah you got me shakin
Mmm, you got me sweatin
Ohh, yeah you got me shakin girl

|-----------------------------------------------------|
|-----------------------------------------------------|
|---------------------------------------------4-------|
|---------2-----------------------------------4-------|
|---------2-----------------------------------2-------|
|---------0-------------------------------------------|
A chill in a fever so I've been told, Makes your head spin around and your feet run cold

|---------------------------------------|
|---------------------------------------|
|------------------------------0--------|
|---1-2---2--1-2----2---1-2-----2-------|
|-2--------2---------2-----------2------|
|----------------------------------0----|
I got fever
Fever,yeah I burn forsooth

|-------------------------------------------------------------|
|-------------------------------------------------------------|
|-----------------------------------------------------4-------|
|---2-------------------------------------------------4-------|
|---2-------------------------------------------------2-------|
|---0---------------------------------------------------------|
I feel like I been run right through the mill, And I can't move around and I can't stand 
still. I'm Bo Diddley


|---------------------------------------|
|---------------------------------------|
|------------------------------0--------|
|---1-2---2--1-2----2---1-2-----2-------| x2
|-2--------2---------2-----------2------|
|----------------------------------0----|
Oh, you got me shakin
I'm so jittery
Thats right, you got me shakin

|-3-0---------3--------------------------------0----|
|-----3-0----------3b-3b-3b-3b-3b-3b-3b-3r-1--------|
|---------2-0--------------------------------2------|
|---------------------------------------------------|
|---------------------------------------------------|
|---------------------------------------------------|

|-5b-5b-5b-5-3---3------3-5b-5b-5b-5b-5b-5b-3-3--5b-5b-5b-5b-5b-5b-5b-3----|
|-------------5------5-------------------------------------------------5-5-|
|--------------------------------------------------------------------------|
|--------------------------------------------------------------------------|
|--------------------------------------------------------------------------|
|--------------------------------------------------------------------------|

|------------------------------------------|
|------------------------------------------|
|----------------------------------4-------|
|-----2----------------------------4-------|
|-----2----------------------------2-------|
|-----0------------------------------------|
Well Samson was a mighty good man. Strongest in his day

|----------------------------------------------------------------------|
|----------------------------------------------------------------------|
|----------------------------------------------------------------------|
|-----7---------------------------------------------5------------------|
|-----7---------------------------------------------5------------------|
|-----5---------------------------------------------3------------------|
 Then along came Delilah and clipped his wig. And it looks like you took me the same old way


|---------------------------------------|
|---------------------------------------|
|------------------------------0--------|
|---1-2---2--1-2----2---1-2-----2-------| x2
|-2--------2---------2-----------2------|
|----------------------------------0----|
So I'm nervous
Oh and I'm shakin
Alright, you got me nervous
Yeah I'm shakin and jumpin

|----------------------------------------------|
|----------------------------------------------|
|--------------------------------------4-------|
|---------2----------------------------4-------|
|---------2----------------------------2-------|
|---------0------------------------------------|
A ship rocks the ship on the sea. The wind blows the leaves in the tree


|--------------------------------------------------------------------------|
|--------------------------------------------------------------------------|
|--------------------------------------------------------------------------|
|----------7---------------------------------------------5-----------------|
|----------7---------------------------------------------5-----------------|
|----------5---------------------------------------------3-----------------|
And I'm a nervous wreck and I'm all shook up, And that's what you're doin' to me right 
now. And I'm jumpin


|---------------------------------------|
|---------------------------------------|
|------------------------------0--------|
|---1-2---2--1-2----2---1-2-----2-------| x4
|-2--------2---------2-----------2------|
|----------------------------------0----|
Thats right you got me shakin
Ohh and I'm jumpin
Thats right, you got me shakin
Ohh, you got me shakin
Thats right, you got me nervous
But now I'm shakin
Ohh, you got me shakin
|--------------|
|--------------|
|--------------|
|---1-2--------|
|-2------------|
|--------------|
comments
print report bad tab
4 comments total. Showing first comments.
+1 reply
vanethe wrote on December 12 2012, 06:59 am

thanks ! so far so good , my problem is with the solo :P

0 reply
Challenger440 wrote on December 12 2012, 05:31 pm

practice, practice, practice for pretty much any Jack White solos. But I have a correction

instead of the main riff as:
|---------------------------------------|
|---------------------------------------|
|------------------------------0--------|
|---1-2---2--1-2----2---1-2-----2-------|
|-2--------2---------2-----------2------|
|----------------------------------0----|

there is an extra B (2nd on the A) on the third "part":
|----------------------------------------|
|----------------------------------------|
|-------------------------------0--------|
|---1-2---2--1-2----2----1-2-----2-------|
|-2--------2---------2-2----------2------|
|-----------------------------------0----|

+1 reply
Jmoarguitar wrote on August 18 2013, 01:49 am

I would have bent the 2nd fret on the G string instead of the 3rd but I'm sleepy so maybe I'm just going insane

I want to post or [tab]
guest
You may want to rate the tab now too:
select rating
Please do not post tabs as comments. Select "correction" instead!