Oops, an error
Loading. Please wait.

Tempus Omnia Revelat Tab

708 views 3 this week
no commentswrite comment
1 2 3 4 5
excellent!
x 1
Autoscroll
+/-
esc
set tempo
stop
Contributor
Hey! There's an official Ultimate Guitar app which is ideal
for learning songs when you're away from computer. Get the app
WARNING: You are trying to view
                                    content from Ultimate-Guitar.com
                                    in an unauthorized application,
                                    which is prohibited.

                                    Please use an official Ultimate
                                    Guitar Tabs application for iPhone,
                                    iPad or Android to access legitimate
                                    chords, guitar, bass, and drum tabs
                                    from Ultimate-Guitar.com database.

                                    Type "ultimate guitar tabs" in Apple
                                    App Store's or Android Market's
                                    search to find the application.
Tempus omnia revelat

As recorded by James Murphy
(From the 1996 Album Convergence)


Transcribed by ScreamOfSilence


Tuning: (D G C F A D)


Rhy Fig 1 

|---------0--------------------------------0-------------------------------|
|-----------0-------------0--------------0---0-------------0---------------|
|-------0-----0---------0---0----------0-------0---------0---0-------------|
|-----4---------------4-------4------4-----------------4-------------------|
|---2---------------2--------------------------------2---------------------|
|-0-------------3-2--------------2-3-------------3-2-----------3-2---------|


Rhy Fig 2

|-------3p0--------------------------------3p0-----------------------------|
|-----------0------------0h3-0-----------------0------------0h3-0----------|
|-------------0----------------0-----------------0----------------0--------|
|-----2----------2-----2----------2-------2---------2-----2----------2-----|
|---2----------------2--------------2---2---------------2--------------2---|
|-0----------------0------------------0---------------0--------------------|


Rhy Fig 3

|-------3p0-------------------------------3p0------------------------------|
|-----------1-----------1h3-1-----------------1-----------1h3-1------------|
|-----2-------2-------2-------2---------2-------2-------2-------2----------|
|---2-----------2---2-----------2-----2-----------2---2-----------2--------|
|-0---------------0---------------0-0---------------0---------------0------|
|--------------------------------------------------------------------------|


Rhy Fig 1 – play it X 2
Rhy Fig 2 – play it X 1
Rhy Fig 3 – play it X 1
Rhy Fig 2 – play it X 1
Rhy Fig 3 – play it X 1
Rhy Fig 1 – play it X 4
Rhy Fig 2 – play it X 1
Rhy Fig 3 – play it X 1
Rhy Fig 1 – play it X 4
Rhy Fig 2 – play it X 1
Rhy Fig 3 – play it X 1
Rhy Fig 2 – play it X 1
Rhy Fig 3 – play it X 1
Rhy Fig 1 – play it X 4
Rhy Fig 2 – play it X 1


Guitar Solo

|--------------------------------------------------------------------------|
|-19~-20p19p17-19~--17-19-AH19b20~--AH19b20~-—17h19-17~~~~~~~~~~~----------|
|--------------------------------------------------------------------------|
|--------------------------------------------------------------------------|
|--------------------------------------------------------------------------|
|--------------------------------------------------------------------------|


|--------------------------------------------------------------------------|
|----20-19-17~-------------------------------------------------------------|
|--------------19-17-17~-16-14-14~---12-11-9-11-12-11-9-11-9-7-------------|
|-------------------------------------------------------------10~-9-10-10~-|
|--------------------------------------------------------------------------|
|--------------------------------------------------------------------------|

|--------------------------------------------------------------------------|
|--------------------------------------------------------------------------|
|--------------------------------------------------------------------------|
|-9-7-9-10-9-7-------------------------------------------------------------|
|-------------10-10-9-7/9-9~~------------7-9-10-9-7----7-------------------|
|---------------------------------------------------10---10-8-7-8-7-10-8~--|

|--------------------------------------------------------------------------|
|--------------------------------------------------------------------------|
|--------------------------------------------------------------------------|
|-------------------------------------------------------------7-7h9-9~-----|
|-------7--------------------------------------7---------------------------|
|-7-8-7—-8~----7-8-7-10-8~----7-8-8~----7-8-10---10-8-7-8-7----------------|

|--------------------------------------------------------------------------|
|--------------------------------------------------------------------------|
|---------------------------------7-9----7---------------------------------|
|--7-9-AH9B10-AH9B10R9-7h9-7~---------10--9-10-5-7-4-5---------------------|
|------------------------------------------------------5~------------------|
|--------------------------------------------------------------------------|

|--------------------------------------------------------------------------|
|--------------------------------------------------------------------------|
|--------------------------------------------------------------------------|
|--------------------------------------------------------------------------|
|-3p2h3h5~--3p2h3h5/7~--5p3h5h7/9~--7p5h7/9~-—7p5h7h9/10-—9p7-9~-----------|
|--------------------------------------------------------------------------|

|------------------------------------------------------------------14-15-17|
|------------------------------------------------14-13-14--13-14-17--------|
|----------------------------------10-9-10--13-15--------15----------------|
|--------------------10-9-10--10-12-------12-------------------------------|
|------10-9-10--10-12-------12---------------------------------------------|
|-10-12-------12-----------------------------------------------------------|

|-19p17p14h15--12-14-12--------12-14~-----12-14-15~--12-14-15-17~----------|
|----------------------15-13-15---------15---------------------------------|
|--------------------------------------------------------------------------|
|--------------------------------------------------------------------------|
|--------------------------------------------------------------------------|
|--------------------------------------------------------------------------|

|---14-15-17-19p17p15h17p15p14p12------12-14-15---12-14-15-17---14-15-17-19|
|-----------------------------------15-------------------------------------|
|--------------------------------------------------------------------------|
|--------------------------------------------------------------------------|
|--------------------------------------------------------------------------|
|--------------------------------------------------------------------------|

|15-17-19--20p19p17h19p17p15h17p15p14-12-14-15-17--14-15-17-19--15-17-19-20|
|--------------------------------------------------------------------------|
|--------------------------------------------------------------------------|
|--------------------------------------------------------------------------|
|--------------------------------------------------------------------------|
|--------------------------------------------------------------------------|

|-17-19-20—-22p20p19-20p19p17-19p17p15\14-15p14----------------------------|
|-----------------------------------------------17~~\----------------------|
|--------------------------------------------------------------------------|
|--------------------------------------------------------------------------|
|--------------------------------------------------------------------------|
|--------------------------------------------------------------------------|




|--------------------------------------------------------------------------|
|-/20-19-17-19-17-----17---------------------------------------------------|
|-----------------19~----19-17~--19-17-16~--19-17-16-17-16-14~--16-14/16~--|
|--------------------------------------------------------------------------|
|--------------------------------------------------------------------------|
|--------------------------------------------------------------------------|

|--------------------------------------------------------------------------|
|--------------------------------------------------------------------------|
|-17-16-14/16-14-12-12~------11\9-11-9/11~---------------------------------|
|--------------------------------------------------------------------------|
|--------------------------------------------------------------------------|
|--------------------------------------------------------------------------|




|--------------------------------------------------------------------------|
|-14----14~~---\--------14----14------12~----------------------------------|
|-14b16—14b16~~\--------14b16—14b16---12~------------12--------------------|
|------------------------------------------14-12h14----14~--14-12-14/17-16~|
|--------------------------------------------------------------------------|
|--------------------------------------------------------------------------|

|--------------------------------------------------------------------------|
|--------------------------------------------------------------------------|
|-14p12p11h12h14p12p11h12--------------------------------------------------|
|---------------------------14-12h14-10-12-9-------------------------------|
|-------------------------------------------12-10h12-10h12p10p9h10—10h9-9~~|
|--------------------------------------------------------------------------|

|--------------------------------------------------------------------------|
|--------------------------------------------------------------------------|
|---------------------------------------------------------------16~--------|
|--------------------------------------------------------------------------|
|-10-10-9-7~----7/10-9~-----9-9-10/12-10h12/14-A14-----12---15-------------|
|----------------------------------------------------15--17---17-----------|

|--------------------------------------------------------------------------|
|--------------------------------------------------------------------------|
|-16h17p16p14-16B17R16~~~--------------14----17----16~\--------------------|
|-----------------------------------17----19----19-------------------------|
|--------------------------------------------------------------------------|
|--------------------------------------------------------------------------|

|-/19-17-15h14-12---12-14-12h14-14-12--12-14-12--12-14-14b15-14b15--14-12--|
|-----------------15-----------------15--------15--------------------------|
|--------------------------------------------------------------------------|
|--------------------------------------------------------------------------|
|--------------------------------------------------------------------------|
|--------------------------------------------------------------------------|

|-14b16-14b16--14-12-14~--------17~--15-14-15-17-15-14—15p14\12-14-15~-----|
|--------------------------------------------------------------------------|
|--------------------------------------------------------------------------|
|--------------------------------------------------------------------------|
|--------------------------------------------------------------------------|
|--------------------------------------------------------------------------|

|-14-12-14-15-14-12-14-12--------------------------------------------------|
|-------------------------15-13-12-13-15~---13-12-13-15-13-12h13-15-12/13~-|
|--------------------------------------------------------------------------|
|--------------------------------------------------------------------------|
|--------------------------------------------------------------------------|
|--------------------------------------------------------------------------|

|--------------------------------------------------------------------------|
|-15~-13-12-13-15p13p12h13h15p13p12h13p12----------------------------------|
|-------------------------------------------14p12p11h12-14-----------------|
|--------------------------------------------------------------------------|
|--------------------------------------------------------------------------|
|--------------------------------------------------------------------------|

|--------------------------------------------------------------------------|
|--------------------------------------------------------------------------|
|-14p12p11h12h14p12p11h12p11p9h11~--11p9h11~~---\--------------------------|
|--------------------------------------------------------------------------|
|--------------------------------------------------------------------------|
|--------------------------------------------------------------------------|


|--------------------------------------------------------------------------|
|/20~-19p17----------------------------------------------------------------|
|----------19p17p16h17h19p17p16--------------------------------------------|
|------------------------------19p17p16-19p17p16---------------------------|
|-----------------------------------------------17p16p14-17p16p14----------|
|----------------------------------------------------------------17-15-14~~|






|-12-12-12-12p10-10~-----12-12p10-10~---12-12-12-12p10-10~-------12-12p10--|
|--------------------------------------------------------------------------|
|--------------------------------------------------------------------------|
|--------------------------------------------------------------------------|
|--------------------------------------------------------------------------|
|--------------------------------------------------------------------------|

|-7-10-7h10p7--7-----------------------------------------------------------|
|------------10-10-8-10-------12-----------------12------------------------|
|-----------------------------12b14-12~----------12------------------------|
|---------------------------------------14-12-14---14-14~------------------|
|--------------------------------------------------------------------------|
|--------------------------------------------------------------------------|

|--------------------------------------------------------------------------|
|-------12-------------------------------------------------------12--------|
|-------12b14-12~--------------------------------------------12--12--------|
|-12h14-----------14-12-14-12-14~--12h14p12---12-----------12-------14~----|
|-------------------------------------------14---14-12-14~-----------------|
|--------------------------------------------------------------------------|


|--------------------------------------------------------------------------|
|--------------------------------------------------------------------------|
|-12h14-14/16-14~--14h16----17-16-17-19-19-17-16-17-17-16-14~--------------|
|-12h14------------14h16---------------------------------------------------|
|--------------------------------------------------------------------------|
|--------------------------------------------------------------------------|

|--------------------------------------------------------------------------|
|-15/17-17~----15/17-17-17\15~---17\15—15\13—13\12—12\10-10\8---10\8-------|
|-14/16-16-----14/16-16-16\14---------14----12----11----9----7/9-----7/9\7~|
|--------------------------------------------------------------------------|
|--------------------------------------------------------------------------|
|--------------------------------------------------------------------------|

|-15-12--------------------------------------------------------------------|
|---------12-12h13-12---------------12-------------------------------------|
|----------------------14-12-14-12-----12----------------------------------|
|-----------------------------------------12-12h14~------------------------|
|--------------------------------------------------------------------------|
|--------------------------------------------------------------------------|

|-15-12--------------------------------------------------------------------|
|---------12-12h13-12---------------12-------------------------------------|
|----------------------14-12-14-12-----12----------------------------------|
|-----------------------------------------12-12h14~------------------------|
|--------------------------------------------------------------------------|
|--------------------------------------------------------------------------|

|--------------------------------------------------------------------------|
|----------12----------------------------------12--------------------------|
|-12-14-12---12-----------------------12-14-12---12------------------------|
|--------------12-12h14~-----------------------------12-12h14~--12--14-14~-|
|--------------------------------------------------------------------------|
|--------------------------------------------------------------------------|


I hope it´s correct. Enjoy!!!



Tablature Legend
----------------
 h   - hammer-on
 p   - pull-off
 b   - bend
 r   - bend release 
 /\  - slide into or out of (from/to "nowhere")
 AH  - artificial harmonic
comments
We did not receive enough feedback on this tab! Please rate:
print report bad tab
1 2 3 4 5
I want to post or [tab]
guest
You may want to rate the tab now too:
select rating
Please do not post tabs as comments. Select "correction" instead!