Oops, an error
Loading. Please wait.

Let It Fall Down Tab

1,000 views 3 this week
1 commentread comment
1 2 3 4 5
excellent!
x 1
Autoscroll
+/-
esc
set tempo
stop
Contributor
Hey! There's an official Ultimate Guitar app which is ideal
for learning songs when you're away from computer. Get the app
WARNING: You are trying to view
                                    content from Ultimate-Guitar.com
                                    in an unauthorized application,
                                    which is prohibited.

                                    Please use an official Ultimate
                                    Guitar Tabs application for iPhone,
                                    iPad or Android to access legitimate
                                    chords, guitar, bass, and drum tabs
                                    from Ultimate-Guitar.com database.

                                    Type "ultimate guitar tabs" in Apple
                                    App Store's or Android Market's
                                    search to find the application.
--------------------------------------------------------------

      JAMES TAYLOR - LET IT FALL DOWN. From WALKING MAN album.
                     Released 1974.

--------------------------------------------------------------

      Tabbed by:PJVillanueva







Sing a song for the wrong and the wicked and the strong 
and the sick as thick as thieves.
For the faceless fear that was never so near, 
too clear to misbelieve.

Well the sea is jumping salty 
and the porpoise has the blues,
my recollection's faulty 
and I cannot find my shoes.

And my wiring is misfiring 
due to cigarettes and booze,
I'm behind in my dues, I just now got the news.
He seems to tell us lies and still we will believe him,
then together he will lead us into darkness, my friends.

Let it fall down, let it fall down, let it all fall down.
Let it fall down, let it fall down, let it all fall down.

The man says stand to one side, son, 
we got to keep big ball rolling.
It's just a question of controlling 
for whom the bell is tolling.

Let it fall down, let it fall down, let it all fall down.
Let it fall down, let it fall down, let it all fall down.

There'll be suffering and starvation 
in the streets, young man.
Just where have you been, old man? 
Just look out of your window, man.

Let it fall down, let it fall down, let it all fall down.
Let it fall down, let it fall down, let it all fall down.

Well, it ain't nobody's fault but our own, 
still, at least we might could show the good sense
To know we've been wrong, 
and it's already taken too long.
So we bring it to a stop then we take it from the top,
we let it settle on down softly like your gently falling snow
or let it tumble down and topple like the temple long ago.

Let it fall down, let it fall down, let it all fall down.
Let it fall down, let it fall down, let it all fall down.

Keep hollerin' timber. I hope it don't fall on me.
I'm hollerin' timber, woah, timber, let it all fall down
Go on, let it fall down, let it fall down 
let it all fall down together.

Let it fall down, let it fall down, let it all fall down.
Let it fall down, let it fall down, let it all fall down.






  You can use a bottleneck for the 2nd guitar part (standard tuning) 
  just from 00:19 to 00:38 (measures 7 to 12, both included). 
                                                               





    Intro



                                     
  G     F#7   B7+5        E9  C-5 A7sus4  G       F-5     G7
e|------0 ------- ------- ----0--|----0-- ------- ------- -------|
B|3-----2---7-8-----------7---1--|3-------3---0------------------|
G|4-----3-----8-----------7---0--|0-------0-------2-------0------|
D|5-----4-----7-----------6------|2-------0-------3-------3------|
A|------------------------7---2--|0---------------2-------2------|
E|------------7------------------|------------------------3------|
                                                              Sing a




                                                    G       G
  Cmaj7           Am7             D7sus4          Gsus4   Gsus4
e|------- ------- ------- -------|------- ------- 8P7---- 8H10---|
B|8---------------8--------------|8---------------8-------8------|
G|9---------------5--------------|5---------------0-------0------|
D|9---------------5--------------|7------------------------------|
A|-------------------------------|5------------------------------|
E|8---------------5--------------|-------------------------------|
  song    wrong   wicked  strong  sick as thick as thieves.  For 
    for the  and the  and the and the                          the





  Cmaj7           Fmaj7           Bb13            Abmaj7
e|------- 7------ ------- 15-----10------ ------- 3------ -------|
B|8--------------13--------------|8---------------4--------------|
G|9--------------14--------------|7---------------5--------------|
D|9--------------14--------------|6---------------6--------------|
A|-------------------------------|-------------------------------|
E|8--------------13--------------|6---------------4--------------|
          fear   never so near,   too     misbelieve.     Well the
  faceless  that was                clear to


  00:19

  G11                             C               G
e|5------ ------- ------- -------|------- ------- ------- 3------|
B|6------------------------------|3H5-----3-------3--------------|
G|5------------------------------|----5-------5------------------|
D|5------------------------------|--------5-----------5----------|
A|-------------------------------|3------------------------------|
E|-------------------------------|----------------3-----------3--|
  sea is jumping  salty      and  porpoise     blues,          My
                               the        has the 
e|------- ------- ------- -------|------- ------- ------- -------|
B|---------/-10---------------\--|5--------/------12-----------\-|
G|---------/-10---------------\--|5--------/------12-----------\-|
D|---------/-10---------------\--|5--------/------12-----------\-|
A|-------------------------------|-------------------------------|
E|-------------------------------|-------------------------------|





  G11                             C               G
e|5------ ------- ------- -------|------3 --5---- 7------ 3------|
B|6------------------------------|3H5---------------3---------3--|
G|5-----------------------------5|----5-------5------------------|
D|5------------------------------|--------5-----------5----------|
A|-------------------------------|3------------------------------|
E|-------------------------------|----------------3--------------|
  recollection's            and I cannot find my  shoes.    and 
              faulty                                        my wiring
e|------/ 10--10- ------- -------|------- ------- ------- -------|
B|10----/-10--10---------------\-|5--------/------12-----------\-|
G|10----/-10--10---------------\-|5--------/------12-----------\-|
D|10---------------------------\-|5--------/------12-----------\-|
A|-------------------------------|-------------------------------|
E|-------------------------------|-------------------------------|




                                                     
  G11                             C               G
e|5------ ------- ------- -------|------- ------- ------- 3------|
B|6------------------------------|3H5-----3H5-----3--------------|
G|5------------------------------|----5-------5------------------|
D|5------------------------------|--------5-----------5----------|
A|-------------------------------|3------------------------------|
E|-------------------------------|----------------3-----------3-3|
      is    misfiring     due  to cigarettes  booze           I'm 
                                          and                 behind
e|------/ 10--10- ------- -------|------- ------- ------- -------|
B|10----/-10--10---------------\-|5--------/------12-------------|
G|10----/-10--10---------------\-|5--------/------12-------------|
D|10---------------------------\-|5--------/------12-------------|
A|-------------------------------|-------------------------------|
E|-------------------------------|-------------------------------|



  00:38
  
  Bb              G               C               C#dim
e|1------ ------- ----3-- -------|------- ------- ------- -------|
B|-------------------------------|8-------------------8----------|
G|--------3-------3H4------------|9---------------8H9-----9------|
D|----3--------------------------10---------------8-------8------|
A|1------------------------------|-------------------------------|
E|----------------3--------------|8---------------9--------------|    
      in my   dues              I just   the news.             He
                                    now got 
e|------- ------- ------- -------|------- ------- ------- -------|
B|-------------------------------|-------------------------------|
G|------------------------5\3----|-------------------------------|
D|----------------------------5\3|----5---7\------5--------------|
A|-------------------------------/7----------/7--------/--7-\----|
E|-------------------------------|-------------------------------|





  Dm6     F#9     Cm6     E9      Bbm6    D9      G       B7
e|------- ------- ------- -------|------- ------- ----3-- -------|
B10-------9-------8-------7------|6-------5-------------------7--|
G10-------9-------8-------7------|6-------5-------3H4-----8------|
D|9-------8-------7-------6------|5-------4---------------7------|
A|--------9---------------7------|--------5----------------------|
E10---------------8--------------|6---------------3-------7------|
  seems   tell                and still     believe him, them together
        to  us lies                  we will
e|------- ------- ------- -------|------- ------- ------- ----7-7|
B10-------9-------8-------7------|6-------5-------3-----------7-7|
G10-------9-------8-------7------|6-------5-------4-----------8-8|
D|9-------8-------7-------6------|5-------4-------5-----------9-9|
A10-------9---------------7------|--------5----------------------|
E|----------------8--------------|6------------------------------|





  Em7     Dm7     Cmaj7   Bm7     Am7     D11     G       B7
e|7------ 5------ ------- -------|------- 3------ ------- -------|
B|8-------6-------8-------7------|5-------5-------3-------7------|
G|7-------5-------9-------7------|5-------5-------3H4-----8------|
D|9-------7-------9-------7------|5---------------3-------7------|
A|7-------5----------------------|--------5----------------------|
E|----------------8-------7------|5---------------3-------7------|
        he will lead us into  darkness, my friends.       Let  
                                                             it fall
e|7---7-- 5-5---- ------- -------|------- ------- ------- -------|
B|8---8---6-6-----8---8---7------|5---5-------5------------------|
G|7---7---5-5-----9---9---7------|5---5-------5------------------|    
D|9---9---7-7-----9---9---7------|5---5-------4---7/9-7P5--------|
A|7---7---5-5--------------------|------------5---------------5/6|
E|----------------8---8---7------|5---5---------------------7----|





  Em7     Dm7     Cmaj7   Bm7     Am7     D9      G       B7
e|7------ 5------ ------- -------|------- 5------ ----3-- -------|
B|8-------6-------8-------7------|5-------5-------3-------7------|
G|7-------5-------9-------7------|5-------5-------4-------8------|
D|9-------7-------9-------7------|5-------4-------3-------7------|
A|7-------5----------------------|--------5----------------------|
E|----------------8-------7------|5---------------3-------7------|
      down   Let  fall        let all  fall   down        Let it
               it     down      it
e|------- ------- ------- -------|------- ------- ------- -------|
B|-------------------------------|-------------------------------|
G|-------------------------------|------------------7------------|
D|--------5----------------------|--------5---5-7/9--9\7-5-------|
A|7---------------7--------5-----|3---5/7---------------------5/6|
E|-------------------------------|--------------------------7----|





  Em7     Dm7     Cmaj7   Bm7     Am7     D9      G       
e|7------ 5------ ------- -------|------- ------- ------- 3------|
B|8-------6-------8-------7------|5-------5-------3--------------|
G|7-------5-------9-------7------|5-------5-------4--------------|
D|9-------7-------9-------7------|5-------4-------3---5----------|
A|7-------5----------------------|--------5----------------------|
E|----------------8-------7------|5---------------3--------------|
  fall       Let  fall        let all  fall   down    The man says    
        down    it     down      it
e|----7-- 5-5-5-- ------- -------|------- ------- ------- -------|
B|----8---6-6-6---8---8---7-7-7-7|5-5-5---5---5------------------|
G|----7---5-5-5---9---9---7-7-7-7|5-5-5---5---5------------------|
D|----9---7-7-7---9---9---7-7-7-7|5-5-5---4---4-------5---5-5-5--|
A|7-------5-5-5------------------|--------5---5------------------|
E|----------------8---8---7-7-7-7|5-5-5-----------3--------------|





  G11                             G  
e|5------ ------- ------- -------|7------ ------- ------- -------|
B|6------------------------------|8------------------------------|
G|5------------------------------|7------------------------------|
D|5------------------------------|9------------------------------|
A|-------------------------------10------------------------------|
E|-------------------------------|-------------------------------|
  stand       side, son,  we got  keep  big ball rolling. It's  
      to one                   to                           just a
e|------- ------- ------- -------|------- ------- ------- -------|
B|-------------------------------|-------------------------------|
G|-------------------------------|-------------------------------|
D|----5-----5-----5-5-5---5-5----|5-5-----5-5-----5-5-----5---5--|
A|-------------------------------|-------------------------------|
E|3-------3---3---------3-----3-3|----3-3-----3-3-----3----------|





  G11                             G       F       C       G
e|5------ ------- ------- -------|7------ 5------ 3------ 3------|
B|6------------------------------|8-------6-------5---5---3------|
G|5------------------------------|7-------5-------5-------4------|
D|5------------------------------|9-------7-------5-------5------|
A|-------------------------------10-------8-------3--------------|
E|-------------------------------|------------------------3------|
  question    controlling     for whom the bell is tolling.   Let 
         of                                                     it
e|------- ------- ------- -------|------- ------- ------- -------|
B|-------------------------------|-------------------------------|
G|-------------------------------|-------------------------------|
D|5-------5-5-----5-5-----5-5----|5-------3-------------------9-\|
A|-------------------------------|--------------3-3---5----------|
E|----3-------3-3-----3-------3-3|----3-------------------5------|


                                                                


  Em7     Dm7     Cmaj7   Bm7     Am7     D9      G       B7
e|7------ 5------ ------- -------|------- ------- ----3-- -------|
B|8-------6-------8-------7------|5-------5-------3-------7------|
G|7-------5-------9-------7------|5-------5-------3H4-----8------|
D|9-------7-------9-------7------|5-------4-------3-------7------|
A|7-------5----------------------|--------5----------------------|
E|----------------8-------7------|5---------------3-------7------|
  fall    Let     fall        let all  fall   down        Let it
        down  it     down       it
e|7-7-7-- 5-5-5-- ------- -------|----5-- ------- ------- -------|
B|8-8-8---6-6-6-------8-------7--|----5--------------------------|
G|7-7-7---5-5-5-------9-------7--|----5--------------------------|
D|9-9-9---7-7-7-------9-------7--|----5-----------7/9------------|
A|7-7-7---5-5-5------------------|-------------------------------|
E|--------------------8-------7--|----5--------------------------|





  Em7     Dm7     Cmaj7   Bm7     Am7     D9      G       
e|7------ 5------ ------- -------|------- ------- ------- 3------|
B|8-------6-------8-------7------|5-------5----------------------|
G|7-------5-------9-------7------|5-------5-------4--------------|
D|9-------7-------9-------7------|5-------4-------3---5----------|
A|7-------5----------------------|--------5----------------------|
E|----------------8-------7------|5---------------3--------------|
  fall        Let fall        let all  fall   down        There'll
        down    it   down       it                            be
e|--7-7-- --5---5 ------- -------|------- ------- ------- 3------|
B|--8-8-----6---6---8---8---7---7|----5-------5-----------3------|
G|--7-7-----5---5---9---9---7---7|----5-------5-----------4------|
D|--9-9-----7---7---9---9---7---7|----5-------4---5---5---5------|
A|--7-7-----5---5----------------|------------5---5---5----------|
E|------------------8---8---7---7|----5-----------3---3----------|




                                                            G
  G11         F#11    G11         G                       Gsus4
e|5------ ----4-- ----5-- -------|------- 7------ ------- 8P7----|
B|6-----------5-------6----------|----8-----------------------8--|
G|5-----------4-------5----------|5/7-------------------7--------|
D|5-----------4-------5----------|------------5------------------|
A|-------------------------------|-------------------------------|
E|-------------------------------|-------------------------------|
  suffering               in  the streets,    man
      and starvation                  young
e|------- ------- ------- -------|------- ------- ------- -------|
B|-------------------------------|-------------------------------|   
G|-------------------------------|-------------------------------|
D|----5-5---5-----5-5-5-5-5-5-5--|5-5-5-5-5-5---5-5-5-----5-5----|
A|-------------------------------|-------------------------------|
E|3-------3---3-----------------3|------------3-------3-------3-3|





  G11                             G       F       C       G
e|5------ ------- ------- -------|7------ 5------ 3------ 3------|
B|6------------------------------|8-------6-------5-------3------|
G|5------------------------------|7-------5-------5-------4------|
D|5------------------------------|9-------7-------5-------5------|
A|-------------------------------10-------8-------3--------------|
E|-------------------------------|------------------------3------|
  Just     you been,  man?        Just       your window, man. Let
    where have    old                 look                      it
                                        out of
e|------- ------- ------- -------|------- ------- ------- -------|
B|-------------------------------|-------------------------------|
G|-------------------------------|-------------------------------|
D|5-------5-5-----5-5-----5-5----|5-5-5---3---3-3----------------|
A|-------------------------------|----------------3-3-5---------5|
E|----3-------3-------3-------3-3|------------------------3-5/7--|






e|------- ------- ------- -------|------- ------- ------- -------|
B|----8-------6---8-------7------|5-------5-----------3---7------|
G|----------------9-------7------|5-------5-------4-------8------|
D|--9-------7-----9-------7------|5-------4-------3-------7------|  
A|7-------5----------------------|--------5----------------------|
E|----------------8-------7------|5---------------3-------7------|
  fall    Let     fall        let all  fall   down        Let it
        down  it     down       it
e|----7-- --5-5-- ------- -------|------- ------- ------- -------|
B|----8-----6-6-------8-------7--|----5--------------------------|
G|----7-----5-5-------9-------7--|----5---------------7-7--------|
D|----9-----7-7-------9-------7--|----5---------5-7/9----9\7-5---|
A|7---------5-5------------------|----------5H7---------------5H6|
E|--------------------8-------7--|----5--------------------------|






e|------- ------- ------- -------|------- 3------ ------- 3------|
B|----8-------6-------------7----|5-------5----------------------|
G|--------------------9-----7----|5-------5-------3H4------------|
D|--9-------7-------9-------7----|5-------------------5----------|
A|7-------5----------------------|--------5----------------------|
E|----------------8-------7------|5---------------3--------------|
  fall    Let     fall        let all  fall   down        Well 
        down  it     down       it                         it ain't
e|----7-- --5-5-- ------- -------|------- ------- ------- -------|
B|----8-----6-6-------8-----7----|--5-----5----------------------|
G|----7-----5-5-------9-----7----|--5-----5----------------------|
D|----9-----7-7-------9-----7----|--5-----4-----------5-------5--|
A|7---------5-5------------------|------5-----------5-----5------|
E|--------------------8-----7----|--5-------------3--------------|





  Fmaj7                           C               G
e|5------ ------- ------- -------|------3 --5---- 5/7-5-3 -------|
B|6------------------------------|3H5----------------------------|
G|5-----------------------------5|----5-----------5/7-5-4--------|   
D|5------------------------------|------------5------------------|
A|-------------------------------|3-------3----------------------|
E|-------------------------------|-------------------------------|    
  nobody's    fault   but  our    own,                      still, 
                                                            at least
e|------- ----0-- ------- -------|------- ------- ------- -------|
B|------------1------------------|-------------------------------|
G|--------2----------------------|-------------------------------|
D|----3-------------------------5|------5-----7---9--------------|
A|-------------------------------|3-5/7--------------------------|
E|3------------------------------|-------------------------------|





  Em7                             Am7             D11     D
e|------- ------7 ------- -------|------- ------- 3------ -------|
B|------8-----------8-------8----|------5---------5-------7------|
G|--7-------7-----------7--------|--5-------5---5-5---5---7------|
D|----9-------9-------9-------9--|----5-------5---0-------0------|
A|7---------------7-------7------|0-------0----------------------|
E|--------7----------------------|-------------------------------|  
     we    could    the   sense       we've been  wrong,      and 
       might   show   good   to know                           it's
e|------- ------- ------- -------|------- ------- ------- -------|
B|-------------------------------|-------------------------------|
G|-------------------------------|-------------------------------|
D|----9-------9-------9-------9--|--------7----------------------|
A|7---------------7-------7------|----7-------7---5-------5------|
E|--------7----------------------|5------------------------------|





  G11                             C               G
e|5------ ------- ------- -------|------3 ------- ------3 -------|
B|6------------------------------|3H5-------4--------------------|
G|5-----------------------------5|----5-------------4------------|
D|5------------------------------|------------5-------5-----5---5|
A|-------------------------------|3-------3----------------------|
E|-------------------------------|----------------3-------3------|    
  already     taken       too     long.                       So we
e|------- ----0-- ------- -------|------- ------- ------- -------|
B|------------1------------------|-------------------------------|
G|--------2----------------------|-------------------------------|
D|----3--------------------------|----5-------5---5---5-----5---5|
A|-------------------------------|3-------5----------------------|
E|3------------------------------|-------------------------------|




                 (.                               (.
  Em7                             C               C#dim
e|------- ------7 ------- -------|------- ------- ------- -------|
B|------8------------------------|------8---------8--------------|
G|--7-------7--------------------|8H9-------9-----9--------------|
D|----9-------9------------------|----------------8--------------|
A|7---------------7--------------|----10------10-----------------|
E|--------7----------------------|8-------8-------9--------------|
  bring    a stop         then    take      the top,        we 
      it to                   we     it from                 let it
e|------- ------- ------- -------|------- ------- ------- -------|
B|-------------------------------|-------------------------------|
G|-------------------------------|-------------------------------|
D|----5-5-----5-5----------------|----5-5-----5-5----------------|
A|7---------------7--------------|3-------3-------4--------------|
E|--------7----------------------|-------------------------------|





  Dm6     F#9     Cm6     E9      Bbm6    D9      G       B7
e|------- ------- ------- -------|------- ------- ------- -------|
B10-------9-------8-------7------|6-------5---------------7------|
G10-------9-------8-------7------|6-------5-------4-------8------|
D|9-------8-------7-------6------|5-------4---------------7------|
A|--------9---------------7------|--------5----------------------|  
E10---------------8--------------|6---------------3-------7------|
  settle     down            like gently       snow    or let it
      on       softly          your     falling
e|------- ------- ------- -------|------- ------- ----3-- -------|
B10-------9-------8-------7------|6-------5-----------3---7------|
G10-------9-------8-------7------|6-------5-------3H4-----8---8--|
D|9-------8-------7-------6------|5-------4-------3-------7------|
A10-------9-------8-------7------|6-------5----------------------|
E|-------------------------------|----------------3-------7------|





  Em7     Dm7     Cmaj7   Bm7     Am7     D9      G       B7
e|7------ 5------ ------- -------|3------ 3------ 3------ -------|
B|8-------6-------8-------7------|5-------5-------3-------7------|
G|7-------5-------9-------7------|5-------5-------4-------8------|
D|9-------7-------9-------7------|5-------0-------3-------7------|   
A|7-------5----------------------|0------------------------------|
E|----------------8-------7------|----------------3-------7------|  
  tumble   and topple  like the temple long ago.          Let 
        down                                                it fall
e|----7-- --5-5-- ------- -------|------- ------- ------- -------|
B|----8-----6-6---8---8---7---7--|-------------------------------|
G|----7-----5-5---9---9---7---7--|-----------------7-------------|
D|----9-----7-7---9---9---7---7--|------------5-7/9-9\7-5--------|
A|----7-----5-5------------------|--------5-7-------------5H6H7--|
E|----------------8---8---7---7--|5------------------------------|






e|7------ 5------ ------- -------|3------ 3------ ----3-- -------|
B|8-------6-------8-------7------|5-------5---------------7------|
G|7-------5-------9-------7------|5-------5-------4-------8------|
D|9-------7-------9-------7------|5-------0-------5-------7------|   
A|7-------5----------------------|0------------------------------|
E|----------------8-------7------|----------------3-------7------|   
      down   Let  fall        let all  fall   down        Let it
               it     down      it
e|7---7-7 --5-5-- ------- -------|------- --8---- ----3-- -------|
B|8---8-8---6-6-------8-------7-7|----5-----8--------------------|
G|7---7-7---5-5-------9-------7-7|----5-----9--------------------|
D|9---9-9---7-7-------9-------7-7|----5----10--------------------|
A|7---7-7---5-5------------------|----------------------------5H6|
E|--------------------8-------7-7|----5---------------------7----|






e|7------ 5------ ------- -------|------- ------- ------- -------|
B|8-------6-------8-------7------|5-------5-------3-------7------|
G|7-------5-------9-------7------|5-------5-------4-------8------|
D|9-------7-------9-------7------|5-------4-------5-------7------|  
A|7-------5----------------------|--------5-------5--------------|
E|----------------8-------7------|5---------------3-------7------|
  fall        Let fall        let all  fall   down  I keep hollerin'   
        down    it   down       it                           
e|----7-- --5---- ------- -------|------- ------3 --3-3-3 -------|
B|----8-----6---------8-----7----|5-------5-----3---3-5-3-7------|
G|----7-----5---------9-----7----|5-------5-----4---4-4-4-8------|
D|----9-----7---------9-----7----|5-------4-----5---5-----7---9--|  
A|7---------5--------------------|--------5-----5---------9------|
E|--------------------8-----7----|5-------------3---------7------|






e|7------ 5------ ------- -------|------- ------- ------- -------|
B|8-------6-------8-------7------|5-------5-------3-------7------|
G|7-------5-------9-------7------|5-------5-------4-------8------|
D|9-------7-------9-------7------|5-------4-------3-------7------|   
A|7-------5----------------------|--------5----------------------|
E|----------------8-------7------|5---------------3-------7------|
  timber       timber          I  hope    fall on     I'm hollerin'
                                    it don't    me            timber
e|7---7-- 5---5-- ------- -------|------- ------- ------- -------|
B|8---8---6---6---8---8---7-7----|-------------------------------|
G|7---7---5---5---9---9---7-7----|----------------7--7/9\7--7---7|
D|9---9---7---7---9---9---7-7----|------5---5-7/9----7/9\7--7---7|
A|7---7---5---5------------------|3-5/7--------------------------|
E|----------------8---8---7-7---5|-------------------------------|






e|7------ 5------ ------- -------|------- ------- ------- -------|
B|8-------6-------8-------7------|5-------5-------3-------7------|
G|7-------5-------9-------7------|5-------5-------4-------8------|
D|9-------7-------9-------7------|5-------4-------3-------7------|   
A|7-------5----------------------|--------5----------------------|
E|----------------8-------7------|5---------------3-------7------|
       woah       timber      let all   fall  down        Go on
                                it
e|--7-7-7 --5-5-5 ------- -------|------- ------- ------- -------|
B|--8-8-8---6-6-6---8-8----------|-------------------------------|
G|--7-7-7---5-5-5---9-9----------|------------------7------------|
D|--9-9-9---7-7-7---9-9-----5----|----5-5-----5-7/9---9\7-5------|
A|--7-7-7---5-5-5-------------7-5|-5/7----5/7-----------------5H6|
E|------------------8-8----------|--------------------------7----|






e|7------ 5------ ------- -------|3------ 3------ ----3-- -------|
B|8-------6-------8-------7-----5|5-------5-------3-------7------|
G|7-------5-------9-------7------|5-------5-------4-------8------|
D|9-------7-------9-------7------|5-------0-------5-------7------|   
A|7-------5----------------------|0------------------------------|
E|----------------8-------7------|----------------3-------7------|
  let    down, let    down  let      fall down  together       let 
    it fall     it fall       it all                             it
e|7-7---5 ------- ------- -------|------- ------- ------- -------|
B|8-8---6---6---8---------7-----5|------5------------------------|
G|7-7---5-----5-----9-----7---7--|--5-------5--------------------|
D|9-9---7-------------9---7------|----5-------4-7/9---9-7P5------|
A|7-7---5------------------------|--------5-------------------5H6|
E|----------------8-------7------|5-------------------------7----|






e|7------ 5------ ------- -------|------- ------- ------- -------|
B|8-------6-------8-------7------|5-------5-------3-------7------|
G|7-------5-------9-------7------|5-------5-------4-------8------|
D|9-------7-------9-------7------|5-------4-------3-------7------|   
A|7-------5----------------------|--------5----------------------|
E|----------------8-------7------|5---------------3-------7------|
  fall        Let fall        let all  fall   down             let 
        down    it   down       it                               it
e|----7-- --5---- ------- -------|------- ------- ------- -------|
B|----8-----6-------8-------7---7|5---------5--------------------|
G|----7-----5-------9-------7---7|5---------5--------------------|
D|----9-----7-------9-------7---7|5---------6--------------------|
A|----7-----5--------------------|------5-5-5-------2-5---6------|
E|------------------8-------7---7|5--------------/3--------------|




                                                         (.

e|7------ 5------ ------- -------|------- 3------ ------- 5------|
B|8-------6-------8-------7------|5-------4-------------6--------|
G|7-------5-------9-------7------|5-------5-------3--4-----------|
D|9-------7-------9-------7------|5-------6----------------------|   
A|7-------5----------------------|-------------------------------|
E|----------------8-------7------|5-------4-------3--------------|
  fall        Let fall        let all     fall    down              
        down    it   down       it
e|7------ 5------ ------- -------|------- 3------ ------- -------|
B|8-------6-------8-------7------|5-------4----------------------|
G|7-------5-------9-------7------|5-------5----------------------|
D|9-------7-------9-------7------|5-------6-----------3H5--3H5-3H5   
A|7-------5----------------------|-------------------------------|
E|----------------8-------7------|5-------4----------------------|
                









        B  Bend
        R  Release
        /  Slide up
        \  Slide down
        H  Hammer-on
        P  Pull-off
        ~  Vibrato
        +  Harmonic
        x  Mute note
        .  Play note like a dot in standard notation
        ^  Ties two notes together
        (. Pause



comments
We did not receive enough feedback on this tab! Please rate:
print report bad tab
1 2 3 4 5
1 comment total.
0 reply
anymower wrote on October 4 2009, 06:19 am

Thank you for all of those James Taylor tabs buddy :-)

I want to post or [tab]
guest
You may want to rate the tab now too:
select rating
Please do not post tabs as comments. Select "correction" instead!