Oops, an error
Loading. Please wait.

Black Devil Car Tab

3,934 views 6 this week
no commentswrite comment
1 2 3 4 5
excellent!
x 2
Autoscroll
+/-
esc
set tempo
stop
Contributor
Hey! There's an official Ultimate Guitar app which is ideal
for learning songs when you're away from computer. Get the app
WARNING: You are trying to view
                                    content from Ultimate-Guitar.com
                                    in an unauthorized application,
                                    which is prohibited.

                                    Please use an official Ultimate
                                    Guitar Tabs application for iPhone,
                                    iPad or Android to access legitimate
                                    chords, guitar, bass, and drum tabs
                                    from Ultimate-Guitar.com database.

                                    Type "ultimate guitar tabs" in Apple
                                    App Store's or Android Market's
                                    search to find the application.
----------------------------------------------------------

        JAMIROQUAI - BLACK DEVIL CAR. From DYNAMITE album. 
                     Released 15th June 2005.

----------------------------------------------------------

        Tabbed by:PJVillanueva






I've got a lot of juice 
I need to put to use 
Let's burn this highway down 
I'm going from Z to G 
When it should be A to B 
Nose so low, it just scrapes the ground 
Can't you see my overtaking 
All the while I'm salivating 
Won't you let me 
Push a little thrust up you 

She loves 

[Chorus:] 
Riding around 
In my black devil car 
I can't hear a sound 
Because her foot's pushing down too hard 
And white angels cry 
For her black devil heart 
She wants me to stop 
She should never let me start 
She should never let me start 

Talking to all those pretty girls 
That I meet around the world           
Her name was Gina 
You should've seen her             
She had the greenest eyes 
And with those endless thighs         
I've put my hands through 
Some misdemeanors                
Can't you see me 
I'm not choosy                     
You drive a black machine 
And I think you're groovy 
Won't ya let me 
Take a little ride with you        

She loves 

[Chorus] 

She's just a love machine        
She's just a love machine 
She's just a love machine 
She's just a love machine 
Oooooh, riding around               
In my black devil car 
You know I can't hear a sound 
In my black devil car, yeah        

Babe, you know                  

You got such a tight machine 
Now let me drive your dream 
Until your tank is dry         
I'm shooting from the hip 
Not running out of clips 
Flames of love and licking high 
Y' know she'll always be runnin' free       
A hot freewheeling honey bee 
Won't ya let me                       
Push a little thrust up you 
That's what I wanna do 

[Chorus]                            

Strapped down, wrapped around 
Breaking up the speed limits 
Red lights, crazy nights 
Hope she's coming back with it 
Super charged devil queen 
Stepping in my love machine 
Twisted my metal 
On the highway of desire           
She's easy rindin' super flyin' 
95 it's still green 
High heels, shiny wheels       
Looking for a tight squeeze 
Rocket fuel and jet juice 
Now she's getting real loose 
Can't stop, black heart       
She should never stop a start 

She's just a love machine 
She's just a love machine.... 







                                     
  
e|---14-- ------- 12----- -------|---10-- ------- 8------ -------|
B|-------------------------------|-------------------------------|
G|14---------12--------------10--|--------10--8---------------7--|
D|-------------------------------|-------------------------------|
A|-------------------------------|-------------------------------|
E|-------------------------------|-------------------------------|

e|------- ------- ------- -------|------- ------- ------- -------|
B|-------------------------------|----6-----------4--------------|
G|--------8-----------6----------|4-------4-----------2----------|
D|9-----------7-----------7---5--|------------3-----------3------|
A|-------------------------------|----------------------------5--|
E|-------------------------------|-------------------------------|





e|----7-- ------- 3------ -------|------- ------- ------- -------|
B|-------------------------------|----6-----------3---3----------|
G|------------5-----------5-\-4--|------------1-----------1------|
D|-------------------------------|-------------------------------|
A|-------------------------------|-------------------------------|
E|-------------------------------|-------------------------------|

e|------- ------- ------- -------|------- ------- ------- -------|
B|-------------------------------|----6---------------3----------|
G|----5-----------3--------------|4-------4-------1-------1------|
D|4-------4-----------2-------5--|------------2---------------2--|
A|------------5-----------3------|-------------------------------|
E|-------------------------------|-------------------------------|





e|---14-- ------- 12----- -------|---10-- ------- 8------ -------|
B|-------------------------------|-------------------------------|
G|14---------12--------------10--|--------10--8---------------7--|
D|-------------------------------|-------------------------------|
A|-------------------------------|-------------------------------|
E|-------------------------------|-------------------------------|

e|------- ------- ------- -------|------- ------- ------- -------|
B|-------------------------------|----6-----------4--------------|
G|--------8-----------6----------|4-------4-----------2----------|
D|9-----------7-----------7---5--|------------3-----------3------|
A|-------------------------------|----------------------------5--|
E|-------------------------------|-------------------------------|





e|----7-- ------- 3------ -------|------- ------- ------- -------|
B|-------------------------------|----6-----------3---3----------|
G|------------5-----------5-\-4--|------------1-----------1------|
D|-------------------------------|-------------------------------|
A|-------------------------------|-------------------------------|
E|-------------------------------|-------------------------------|
     
e|------- ------- ------- -------|------- ------- ------- -------|
B|-------------------------------|----6---------------3----------|
G|----5-----------3--------------|4-------4-------1-------1------|
D|4-------4-----------2-------5--|------------2---------------2--|
A|------------5-----------3------|-------------------------------|
E|-------------------------------|-------------------------------|





e|------- ------- ------- -------|------- ------- ------- -------|
B|---10-----------8--------------|----6-----------4--------------|
G|--------8-----------6----------|4-------4-----------2----------|
D|9-----------9-----------7---5--|------------3-----------3------|
A|-------------------------------|----------------------------5--|
E|-------------------------------|-------------------------------|
      I've got                         I need to put to use 
           a lot of juice



e|------- ------- ------- -------|------- ------- ------- -------|
B|-------------------------------|----6---------------3----------|
G|----5-----------3--------------|4-------4-------1-------1------|
D|4-------4-----------2-------5--|------------2---------------2--|
A|------------5-----------3------|-------------------------------|
E|-------------------------------|-------------------------------|
    Let's burn this highway down 




e|------- ------- ------- -------|------- ------- ------- -------|
B|---10-----------8--------------|----6-----------4--------------|
G|--------8-----------6----------|4-------4-----------2----------|
D|9-----------9-----------7---5--|------------3-----------3------|
A|-------------------------------|----------------------------5--|
E|-------------------------------|-------------------------------|
      I'm going                      When  
              from Z to G              it should be A to B



e|------- ------- ------- -------|------- ------- ------- -------|
B|-------------------------------|----6---------------3----------|
G|----5-----------3--------------|4-------4-------1-------1------|
D|4-------4-----------2-------5--|------------2---------------2--|
A|------------5-----------3------|-------------------------------|
E|-------------------------------|-------------------------------|
  Nose so low, it              
             just scrapes 
                     the ground


e|---14-- ------- 12----- -------|---10-- ------- 8------ -------|
B|-------------------------------|-------------------------------|
G|14---------12--------------10--|--------10--8---------------7--|
D|-------------------------------|-------------------------------|
A|-------------------------------|-------------------------------|
E|-------------------------------|-------------------------------|
  Can't   you see     my          overtaking 
e|------- ------- ------- -------|------- ------- ------- -------|
B|---10-----------8--------------|----6-----------4--------------|
G|--------8-----------6----------|4-------4-----------2----------|
D|9-----------9-----------7---5--|------------3-----------3------|
A|-------------------------------|----------------------------5--|
E|-------------------------------|-------------------------------|
      




e|----7-- ------- 3------ -------|------- ------- ------- -------|
B|-------------------------------|----6-----------3---3----------|
G|------------5-----------5-\-4--|------------1-----------1------|
D|-------------------------------|-------------------------------|
A|-------------------------------|-------------------------------|
E|-------------------------------|-------------------------------|
  All     the     while   I'm         salivating 
e|------- ------- ------- -------|------- ------- ------- -------|
B|-------------------------------|----6---------------3----------|
G|----5-----------3--------------|4-------4-------1-------1------|
D|4-------4-----------2-------5--|------------2---------------2--|
A|------------5-----------3------|-------------------------------|
E|-------------------------------|-------------------------------|





e|---14-- ------- 12----- -------|---10-- ------- 8------ -------|
B|-------------------------------|-------------------------------|
G|14---------12--------------10--|--------10--8---------------7--|
D|-------------------------------|-------------------------------|
A|-------------------------------|-------------------------------|
E|-------------------------------|-------------------------------|
  Won't   you let     me          Push a little   thrust  up  you 
e|------- ------- ------- -------|------- ------- ------- -------|
B|---10-----------8--------------|----6-----------4--------------|
G|--------8-----------6----------|4-------4-----------2----------|
D|9-----------9-----------7---5--|------------3-----------3------|
A|-------------------------------|----------------------------5--|
E|-------------------------------|-------------------------------|
      




e|----7-- ------- 3------ -------|------- ------- ------- -------|
B|-------------------------------|----6-----------3---3----------|
G|------------5-----------5-\-4--|------------1-----------1------|
D|-------------------------------|-------------------------------|
A|-------------------------------|-------------------------------|
E|-------------------------------|-------------------------------|
                                                      She loves 
e|------- ------- ------- -------|------- ------- ------- -------|
B|-------------------------------|----6---------------3----------|
G|----5-----------3--------------|4-------4-------1-------1------|
D|4-------4-----------2-------5--|------------2---------------2--|
A|------------5-----------3------|-------------------------------|
E|-------------------------------|-------------------------------|





e|------- ------- ------- -------|------- ------- ------- -------|
B|-------------------------------|-------------------------------|
G|-------------------------------|-------------------------------|
D|9-------9-------7---7-------5--|----5-------3-------3---3---3--|
A|9-------9-------7---7-------5--|----5-------3-------3---3---3--|
E|7-------7-------5---5-------3--|----3-------1-------1---1---1--|
  Riding  around                                  In  my 
e|------- ------- ------- -------|------- ------- ------- -------|
B|-------------------------------|-------------------------------|
G|-------------------------------|-------------------------------|
D|--------9-----------7----------|----5---------------3-------3--|
A|-------------------------------|-------------------------------|
E|7-----------3-/-5-----------3--|------------1-----------1------|

e|------- ------- ------- -------|------- ------- ------- -------|
B|-------------------------------|-------------------------------|
G|--------10-/-7-----------------|-------------------------------|
D|--------10-/-7-----------------|-------------------------------|
A|-------------------------------|-------------------------------|
E|-------------------------------|-------------------------------|





e|------- ------- ------- -------|------- ------- ------- -------|
B|-------------------------------|-------------------------------|
G|7-------7-------5---5----------|-------------------------------|
D|7-------7-------5---5-------5--|--------3---5---5B6R5---3---5--|
A|5-------5-------3---3-------5--|----5--------------------------|
E|----------------------------3--|-------------------------------|
  black           devil       car                             I
e|------- ------- ------- -------|------- ------- ------- -------|
B|-------------------------------|--------10--12--12B13R1210--12-|
G|--------7-----------5----------|----12--10--12--12B13R1210--12-|
D|----------------------------5--|----12-------------------------|
A|5---------------3--------------|-------------------------------|
E|----------------------------3--|-------------------------------|

e|------- ------- ------- -------|------- ------- ------- -------|
B|-------------------------------|-------------------------------|
G|--------10-/-7-----------------|-------------------------------|
D|--------10-/-7-----------------|-------------------------------|
A|-------------------------------|-------------------------------|
E|-------------------------------|-------------------------------|





e|------- ------- ------- -------|------- ------- ------- -------|
B|-------------------------------|-------------------------------|
G|-------------------------------|-------------------------------|
D|9-------9-------7---7-------5--|----5-------3-------3---3---3--|
A|9-------9-------7---7-------5--|----5-------3-------3---3---3--|
E|7-------7-------5---5-------3--|----3-------1-------1---1---1--|
  can't hear a sound                                  Because her 
e|------- ------- ------- -------|------- ------- ------- -------|
B|-------------------------------|-------------------------------|
G|-------------------------------|-------------------------------|
D|--------9-----------7----------|----5---------------3-------3--|
A|-------------------------------|-------------------------------|
E|7-----------3-/-5-----------3--|------------1-----------1------|

e|------- ------- ------- -------|------- ------- ------- -------|
B|-------------------------------|-------------------------------|
G|--------10-/-7-----------------|-------------------------------|
D|--------10-/-7-----------------|-------------------------------|
A|-------------------------------|-------------------------------|
E|-------------------------------|-------------------------------|





e|------- ------- ------- -------|------- ------- ------- -------|
B|-------------------------------|-------------------------------|
G|7-------7-------5---5----------|-------------------------------|
D|7-------7-------5---5-------5--|--------3---5---5B6R5---3---5--|
A|5-------5-------3---3-------5--|----5--------------------------|
E|----------------------------3--|-------------------------------|
  foot's  pushing down    too hard                            And 
e|------- ------- ------- -------|------- ------- ------- -------|
B|-------------------------------|--------10--12--12B13R1210--12-|
G|--------7-----------5----------|----12--10--12--12B13R1210--12-|
D|----------------------------5--|----12-------------------------|
A|5---------------3--------------|-------------------------------|
E|----------------------------3--|-------------------------------|

e|------- ------- ------- -------|------- ------- ------- -------|
B|-------------------------------|-------------------------------|
G|--------10-/-7-----------------|-------------------------------|
D|--------10-/-7-----------------|-------------------------------|
A|-------------------------------|-------------------------------|
E|-------------------------------|-------------------------------|





e|------- ------- ------- -------|------- ------- ------- -------|
B|-------------------------------|-------------------------------|
G|-------------------------------|-------------------------------|
D|9-------9-------7---7-------5--|----5-------3-------3---3---3--|
A|9-------9-------7---7-------5--|----5-------3-------3---3---3--|
E|7-------7-------5---5-------3--|----3-------1-------1---1---1--|
  white angels cry                                For her 
e|------- ------- ------- -------|------- ------- ------- -------|
B|-------------------------------|-------------------------------|
G|-------------------------------|-------------------------------|
D|--------9-----------7----------|----5---------------3-------3--|
A|-------------------------------|-------------------------------|
E|7-----------3-/-5-----------3--|------------1-----------1------|

e|------- ------- ------- -------|------- ------- ------- -------|
B|-------------------------------|-------------------------------|
G|--------10-/-7-----------------|-------------------------------|
D|--------10-/-7-----------------|-------------------------------|
A|-------------------------------|-------------------------------|
E|-------------------------------|-------------------------------|





e|------- ------- ------- -------|------- ------- ------- -------|
B|-------------------------------|-------------------------------|
G|7-------7-------5---5----------|-------------------------------|
D|7-------7-------5---5-------5--|--------3---5---5B6R5---3---5--|
A|5-------5-------3---3-------5--|----5--------------------------|
E|----------------------------3--|-------------------------------|
  black           devil       heart                           She
e|------- ------- ------- -------|------- ------- ------- -------|
B|-------------------------------|--------10--12--12B13R1210--12-|
G|--------7-----------5----------|----12--10--12--12B13R1210--12-|
D|----------------------------5--|----12-------------------------|
A|5---------------3--------------|-------------------------------|
E|----------------------------3--|-------------------------------|
 
e|------- ------- ------- -------|------- ------- ------- -------|
B|-------------------------------|-------------------------------|
G|--------10-/-7-----------------|-------------------------------|
D|--------10-/-7-----------------|-------------------------------|
A|-------------------------------|-------------------------------|
E|-------------------------------|-------------------------------|





e|------- ------- ------- -------|------- ------- ------- -------|
B|-------------------------------|-------------------------------|
G|-------------------------------|-------------------------------|
D|9-------9-------7---7-------5--|----5-------3-------3---3---3--|
A|9-------9-------7---7-------5--|----5-------3-------3---3---3--|
E|7-------7-------5---5-------3--|----3-------1-------1---1---1--|
  wants me to stop                She should never let me     start  
e|------- ------- ------- -------|------- ------- ------- -------|
B|-------------------------------|-------------------------------|
G|-------------------------------|-------------------------------|
D|--------9-----------7----------|----5---------------3-------3--|
A|-------------------------------|-------------------------------|
E|7-----------3-/-5-----------3--|------------1-----------1------|

e|------- ------- ------- -------|------- ------- ------- -------|
B|-------------------------------|-------------------------------|
G|--------10-/-7-----------------|-------------------------------|
D|--------10-/-7-----------------|-------------------------------|
A|-------------------------------|-------------------------------|
E|-------------------------------|-------------------------------|





e|------- ------- ------- -------|------- ------- ------- -------|
B|-------------------------------|-------------------------------|
G|7-------7-------5---5----------|-------------------------------|
D|7-------7-------5---5-------5--|--------3---5---5B6R5---3---5--|
A|5-------5-------3---3-------5--|----5--------------------------|
E|----------------------------3--|-------------------------------|
                                  She should never let me     start
e|------- ------- ------- -------|------- ------- ------- -------|
B|-------------------------------|--------10--12--12B13R1210--12-|
G|--------7-----------5----------|----12--10--12--12B13R1210--12-|
D|----------------------------5--|----12-------------------------|
A|5---------------3--------------|-------------------------------|
E|----------------------------3--|-------------------------------|
 
e|------- ------- ------- -------|------- ------- ------- -------|
B|-------------------------------|-------------------------------|
G|--------10-/-7-----------------|-------------------------------|
D|--------10-/-7-----------------|-------------------------------|
A|-------------------------------|-------------------------------|
E|-------------------------------|-------------------------------|





e|---14-- ------- 12----- -------|---10-- ------- 8------ -------|
B|-------------------------------|-------------------------------|
G|14---------12--------------10--|--------10--8---------------7--|
D|-------------------------------|-------------------------------|
A|-------------------------------|-------------------------------|
E|-------------------------------|-------------------------------|
  Talking                           that I meet around 
      to all those pretty girls                     the world 
e|------- ------- ------- -------|------- ------- ------- -------|
B|-------------------------------|----6-----------4--------------|
G|--------8-----------6----------|4-------4-----------2----------|
D|9-----------7-----------7---5--|------------3-----------3------|
A|-------------------------------|----------------------------5--|
E|-------------------------------|-------------------------------|





e|----7-- ------- 3------ -------|------- ------- ------- -------|
B|-------------------------------|----6-----------3---3----------|
G|------------5-----------5-\-4--|------------1-----------1------|
D|-------------------------------|-------------------------------|
A|-------------------------------|-------------------------------|
E|-------------------------------|-------------------------------|
      Her name was Gina             You should've seen her
e|------- ------- ------- -------|------- ------- ------- -------|
B|-------------------------------|----6---------------3----------|
G|----5-----------3--------------|4-------4-------1-------1------|
D|4-------4-----------2-------5--|------------2---------------2--|
A|------------5-----------3------|-------------------------------|
E|-------------------------------|-------------------------------|





e|---14-- ------- 12----- -------|---10-- ------- 8------ -------|
B|-------------------------------|-------------------------------|
G|14---------12--------------10--|--------10--8---------------7--|
D|-------------------------------|-------------------------------|
A|-------------------------------|-------------------------------|
E|-------------------------------|-------------------------------|
      She had the greenest eyes      and with those endless thighs
                              Aaaaha                          Yeah
e|------- ------- ------- -------|------- ------- ------- -------|
B|-------------------------------|----6-----------4--------------|
G|--------8-----------6----------|4-------4-----------2----------|
D|9-----------7-----------7---5--|------------3-----------3------|
A|-------------------------------|----------------------------5--|
E|-------------------------------|-------------------------------|





e|----7-- ------- 3------ -------|------- ------- ------- -------|
B|-------------------------------|----6-----------3---3----------|
G|------------5-----------5-\-4--|------------1-----------1------|
D|-------------------------------|-------------------------------|
A|-------------------------------|-------------------------------|
E|-------------------------------|-------------------------------|
    I've put my hands through        some misdemeanors 
e|------- ------- ------- -------|------- ------- ------- -------|
B|-------------------------------|----6---------------3----------|
G|----5-----------3--------------|4-------4-------1-------1------|
D|4-------4-----------2-------5--|------------2---------------2--|
A|------------5-----------3------|-------------------------------|
E|-------------------------------|-------------------------------|




 
e|---14-- ------- 12----- -------|---10-- ------- 8------ -------|
B|-------------------------------|-------------------------------|
G|14---------12--------------10--|--------10--8---------------7--|
D|-------------------------------|-------------------------------|
A|-------------------------------|-------------------------------|
E|-------------------------------|-------------------------------|
  Can't   you see     me          I'm not     choosy          You
e|------- ------- ------- -------|------- ------- ------- -------|
B|-------------------------------|----6-----------4--------------|
G|--------8-----------6----------|4-------4-----------2----------|
D|9-----------7-----------7---5--|------------3-----------3------|
A|-------------------------------|----------------------------5--|
E|-------------------------------|-------------------------------|





e|----7-- ------- 3------ -------|------- ------- ------- -------|
B|-------------------------------|----6-----------3---3----------|
G|------------5-----------5-\-4--|------------1-----------1------|
D|-------------------------------|-------------------------------|
A|-------------------------------|-------------------------------|
E|-------------------------------|-------------------------------|
  drive a black machine   and I     think you're groovy
                                    think you're groovy
e|------- ------- ------- -------|------- ------- ------- -------|
B|-------------------------------|----6---------------3----------|
G|----5-----------3--------------|4-------4-------1-------1------|
D|4-------4-----------2-------5--|------------2---------------2--|
A|------------5-----------3------|-------------------------------|
E|-------------------------------|-------------------------------|





e|---14-- ------- 12----- -------|---10-- ------- 8------ -------|
B|-------------------------------|-------------------------------|
G|14---------12--------------10--|--------10--8---------------7--|
D|-------------------------------|-------------------------------|
A|-------------------------------|-------------------------------|
E|-------------------------------|-------------------------------|
  Won't   you let     me          take a  little  ride        with 
e|------- ------- ------- -------|------- ------- ------- -------|
B|-------------------------------|----6-----------4--------------|
G|--------8-----------6----------|4-------4-----------2----------|
D|9-----------7-----------7---5--|------------3-----------3------|
A|-------------------------------|----------------------------5--|
E|-------------------------------|-------------------------------|





e|----7-- ------- 3------ -------|------- ------- ------- -------|
B|-------------------------------|----6-----------3---3----------|
G|------------5-----------5-\-4--|------------1-----------1------|
D|-------------------------------|-------------------------------|
A|-------------------------------|-------------------------------|
E|-------------------------------|-------------------------------|
  you                                                 She loves
e|------- ------- ------- -------|------- ------- ------- -------|
B|-------------------------------|----6---------------3----------|
G|----5-----------3--------------|4-------4-------1-------1------|
D|4-------4-----------2-------5--|------------2---------------2--|
A|------------5-----------3------|-------------------------------|
E|-------------------------------|-------------------------------|
   
e|------- ------- ------- -------|------- ------- ------- -------|
B|-------------------------------|-------------------------------|
G|-------------------------------|12--12--12--12-\9---9---9---9--|
D|-------------------------------|-------------------------------|
A|-------------------------------|10--10--10--10-\7---7---7---7--|
E|-------------------------------|-------------------------------|





e|------- ------- ------- -------|------- ------- ------- -------|
B|-------------------------------|-------------------------------|
G|-------------------------------|-------------------------------|
D|9-------9-------7---7-------5--|----5-------3-------3---3---3--|
A|9-------9-------7---7-------5--|----5-------3-------3---3---3--|
E|7-------7-------5---5-------3--|----3-------1-------1---1---1--|
  Riding  around                                  In  my 
e|------- ------- ------- -------|------- ------- ------- -------|
B|-------------------------------|-------------------------------|
G|-------------------------------|-------------------------------|
D|--------9-----------7----------|----5---------------3-------3--|
A|-------------------------------|-------------------------------|
E|7-----------3-/-5-----------3--|------------1-----------1------|





e|------- ------- ------- -------|------- ------- ------- -------|
B|-------------------------------|-------------------------------|
G|7-------7-------5---5----------|-------------------------------|
D|7-------7-------5---5-------5--|--------3---5---5B6R5---3---5--|
A|5-------5-------3---3-------5--|----5--------------------------|
E|----------------------------3--|-------------------------------|
  black           devil       car                             I
e|------- ------- ------- -------|------- ------- ------- -------|
B|-------------------------------|--------10--12--12B13R1210--12-|
G|--------7-----------5----------|----12--10--12--12B13R1210--12-|
D|----------------------------5--|----12-------------------------|
A|5---------------3--------------|-------------------------------|
E|----------------------------3--|-------------------------------|

e|------- ------- ------- -------|------- ------- ------- -------|
B|-------------------------------|-------------------------------|
G|--------10-/-7-----------------|-------------------------------|
D|--------10-/-7-----------------|-------------------------------|
A|-------------------------------|-------------------------------|
E|-------------------------------|-------------------------------|





e|------- ------- ------- -------|------- ------- ------- -------|
B|-------------------------------|-------------------------------|
G|-------------------------------|-------------------------------|
D|9-------9-------7---7-------5--|----5-------3-------3---3---3--|
A|9-------9-------7---7-------5--|----5-------3-------3---3---3--|
E|7-------7-------5---5-------3--|----3-------1-------1---1---1--|
  can't hear a sound                                  Because her 
e|------- ------- ------- -------|------- ------- ------- -------|
B|-------------------------------|-------------------------------|
G|-------------------------------|-------------------------------|
D|--------9-----------7----------|----5---------------3-------3--|
A|-------------------------------|-------------------------------|
E|7-----------3-/-5-----------3--|------------1-----------1------|

e|------- ------- ------- -------|------- ------- ------- -------|
B|-------------------------------|-------------------------------|
G|--------10-/-7-----------------|-------------------------------|
D|--------10-/-7-----------------|-------------------------------|
A|-------------------------------|-------------------------------|
E|-------------------------------|-------------------------------|





e|------- ------- ------- -------|------- ------- ------- -------|
B|-------------------------------|-------------------------------|
G|7-------7-------5---5----------|-------------------------------|
D|7-------7-------5---5-------5--|--------3---5---5B6R5---3---5--|
A|5-------5-------3---3-------5--|----5--------------------------|
E|----------------------------3--|-------------------------------|
  foot's  pushing down    too hard                            And 
e|------- ------- ------- -------|------- ------- ------- -------|
B|-------------------------------|--------10--12--12B13R1210--12-|
G|--------7-----------5----------|----12--10--12--12B13R1210--12-|
D|----------------------------5--|----12-------------------------|
A|5---------------3--------------|-------------------------------|
E|----------------------------3--|-------------------------------|

e|------- ------- ------- -------|------- ------- ------- -------|
B|-------------------------------|-------------------------------|
G|--------10-/-7-----------------|-------------------------------|
D|--------10-/-7-----------------|-------------------------------|
A|-------------------------------|-------------------------------|
E|-------------------------------|-------------------------------|





e|------- ------- ------- -------|------- ------- ------- -------|
B|-------------------------------|-------------------------------|
G|-------------------------------|-------------------------------|
D|9-------9-------7---7-------5--|----5-------3-------3---3---3--|
A|9-------9-------7---7-------5--|----5-------3-------3---3---3--|
E|7-------7-------5---5-------3--|----3-------1-------1---1---1--|
  white angels cry                                For her 
e|------- ------- ------- -------|------- ------- ------- -------|
B|-------------------------------|-------------------------------|
G|-------------------------------|-------------------------------|
D|--------9-----------7----------|----5---------------3-------3--|
A|-------------------------------|-------------------------------|
E|7-----------3-/-5-----------3--|------------1-----------1------|

e|------- ------- ------- -------|------- ------- ------- -------|
B|-------------------------------|-------------------------------|
G|--------10-/-7-----------------|-------------------------------|
D|--------10-/-7-----------------|-------------------------------|
A|-------------------------------|-------------------------------|
E|-------------------------------|-------------------------------|





e|------- ------- ------- -------|------- ------- ------- -------|
B|-------------------------------|-------------------------------|
G|7-------7-------5---5----------|-------------------------------|
D|7-------7-------5---5-------5--|--------3---5---5B6R5---3---5--|
A|5-------5-------3---3-------5--|----5--------------------------|
E|----------------------------3--|-------------------------------|
  black           devil       heart                           She
e|------- ------- ------- -------|------- ------- ------- -------|
B|-------------------------------|--------10--12--12B13R1210--12-|
G|--------7-----------5----------|----12--10--12--12B13R1210--12-|
D|----------------------------5--|----12-------------------------|
A|5---------------3--------------|-------------------------------|
E|----------------------------3--|-------------------------------|
 
e|------- ------- ------- -------|------- ------- ------- -------|
B|-------------------------------|-------------------------------|
G|--------10---/--7--------------|-------------------------------|
D|--------10---/--7--------------|-------------------------------|
A|-------------------------------|-------------------------------|
E|-------------------------------|-------------------------------|





e|------- ------- ------- -------|------- ------- ------- -------|
B|-------------------------------|-------------------------------|
G|-------------------------------|-------------------------------|
D|9-------9-------7---7-------5--|----5-------3-------3---3---3--|
A|9-------9-------7---7-------5--|----5-------3-------3---3---3--|
E|7-------7-------5---5-------3--|----3-------1-------1---1---1--|
  wants me to stop                She should never let me     start  
e|------- ------- ------- -------|------- ------- ------- -------|
B|-------------------------------|-------------------------------|
G|-------------------------------|-------------------------------|
D|--------9-----------7----------|----5---------------3-------3--|
A|-------------------------------|-------------------------------|
E|7-----------3-/-5-----------3--|------------1-----------1------|

e|------- ------- ------- -------|------- ------- ------- -------|
B|-------------------------------|-------------------------------|
G|--------10-/-7-----------------|-------------------------------|
D|--------10-/-7-----------------|-------------------------------|
A|-------------------------------|-------------------------------|
E|-------------------------------|-------------------------------|





e|------- ------- ------- -------|------- ------- ------- -------|
B|-------------------------------|-------------------------------|
G|7-------7-------5---5----------|-------------------------------|
D|7-------7-------5---5-------5--|--------3---5---5B6R5---3---5--|
A|5-------5-------3---3-------5--|----5--------------------------|
E|----------------------------3--|-------------------------------|
                                  She should never let me     start 
e|------- ------- ------- -------|------- ------- ------- -------|
B|-------------------------------|--------10--12--12B13R1210--12-|
G|--------7-----------5----------|----12--10--12--12B13R1210--12-|
D|----------------------------5--|----12-------------------------|
A|5---------------3--------------|-------------------------------|
E|----------------------------3--|-------------------------------|

e|------- ------- ------- -------|------- ------- ------- -------|
B|-------------------------------|-------------------------------|
G|--------10-/-7-----------------|-------------------------------|
D|--------10-/-7-----------------|-------------------------------|
A|-------------------------------|-------------------------------|
E|-------------------------------|-------------------------------|





e|------- ------- ------- -------|------- ------- ------- -------|
B|-------------------------------|-------------------------------|
G|-------------------------------|-------------------------------|
D|9-------9-----------7-------5--|----5-------3-----------3------|
A|-------------------------------|-------------------------------|
E|7-------7-------5-----------3--|----3-------1-------1----------|
  She's           just    a       love    machine 




e|------- ------- ------- -------|------- ------- ------- -------|
B|-------------------------------|-------------------------------|
G|7-------7-----------5----------|-------------------------------|
D|----------------------------5--|--------3---5---5B6R5---3---5--|
A|5-------5-------3--------------|----5--------------------------|
E|----------------------------3--|-------------------------------|
  She's           just    a       love    machine 
e|------- ------- ------- -------|------- ------- ------- -------|
B|-------------------------------|--------6---8---8B9R8---6---8--|
G|-------------------------------|----7--------------------------|
D|-------------------------------|-------------------------------|
A|-------------------------------|-------------------------------|
E|-------------------------------|-------------------------------|





e|------- ------- ------- -------|------- ------- ------- -------|
B|-------------------------------|-------------------------------|
G|-------------------------------|-------------------------------|
D|9-------9-----------7-------5--|----5-------3-----------3------|
A|-------------------------------|-------------------------------|
E|7-------7-------5-----------3--|----3-------1-------1----------|
  She's           just    a       love    machine 




e|------- ------- ------- -------|------- ------- ------- -------|
B|-------------------------------|-------------------------------|
G|7-------7-----------5----------|-------------------------------|
D|----------------------------5--|--------3---5---5B6R5---3---5--|
A|5-------5-------3--------------|----5--------------------------|
E|----------------------------3--|-------------------------------|
  She's           just    a       love    machine 
e|------- ------- ------- -------|------- ------- ------- -------|
B|-------------------------------|--------6---8---8B9R8---6---8--|
G|-------------------------------|----7--------------------------|
D|-------------------------------|-------------------------------|
A|-------------------------------|-------------------------------|
E|-------------------------------|-------------------------------|




  
e|------- ------- ------- -------|10----- ------- ------- -------|
B|-------------------------------|----------------10-------------|
G|--------11--------------11-----|--------11--------------11-----|
D|12--------------12-------------|-------------------------------|
A|-------------------------------|-------------------------------|
E|-------------------------------|-------------------------------|
  Oooooh,                                         riding  around     
e|------- ------- ------- -------|------- ------- ------- -------|   
B|-------------------------------|-------------------------------|
G|----------------7--------------|------------------------7------|
D|--------7----------------------|--------7----------------------|
A|5------------------------------|-------------------------------|
E|-------------------------------|-------------------------------|





e|------- ------- ------- -------|12----- ------- ------- -------|
B|----------------12-------------|----------------12-------------|
G|--------12--------------12-----|------------------------12-----|
D|14-----------------------------|-------------------------------|
A|-------------------------------|-------------------------------|
E|-------------------------------|-------------------------------|
                                                  in  my      black
e|------- ------- ------- -------|------- ------- ------- -------|
B|----------------7H8------------|7------------------------------|
G|-------------------------------|----------------9--------------|
D|--------9----------------------|--------9----------------------|
A|7-----------------------7------|-------------------------------|
E|-------------------------------|-------------------------------|





e|------- ------- ------- -------|------- ------- ------- -------|
B|-------------------------------|----------------12-------------|
G|--------11--------------11-----|--------11--------------11-----|
D|12--------------12-------------|-------------------------------|
A|-------------------------------|-------------------------------|
E|-------------------------------|-------------------------------|
                                                  devil       car
e|------- ------- ------- -------|------- ------- ------- -------|
B|------------------------7------|-------------------------------|
G|-------------------------------|7------------------------------|
D|----------------7--------------|--------7----------------------|
A|--------9----------------------|-------------------------------|
E|7------------------------------|-------------------------------|





e|------- ------- ------- -------|12----- ------- ------- -------|
B|--------9---------------9------|----------------13-------------|
G|----------------9--------------|--------12--------------12-----|
D|-------------------------------|-------------------------------|
A|-------------------------------|-------------------------------|
E|-------------------------------|-------------------------------|

e|7------ ------- ------- ----\--|3------ ------- ------- -------|
B|9-----------------------9---\--|5-----------------------5------|
G|9---------------9-----------\--|5---------------5--------------|
D|9-------9-------------------\--|5-------5----------------------|
A|7---------------------------\--|3------------------------------|
E|-------------------------------|-------------------------------|





e|10----- ------- ------- -------|10----- ------- ------- -------|
B|----------------10-------------|----------------10-------------|
G|--------11--------------11-----|--------11--------------11-----|
D|-------------------------------|-------------------------------|
A|-------------------------------|-------------------------------|
E|-------------------------------|-------------------------------|
                              You know I  can't   hear    a   sound 
e|5------ ------- ------- -------|------- ------- ------- -------|
B|7------------------------------|7------------------------------|
G|7---------------7--------------|-------------------------------|
D|7-------7---------------7------|-------------------------------|
A|5------------------------------|-------------------------------|
E|-------------------------------|-------------------------------|





e|12----- ------- ------- -------|12----- ------- ------- -------|
B|----------------12-------------|----------------12-------------|
G|--------12--------------12-----|--------12--------------12-----|
D|-------------------------------|-------------------------------|
A|-------------------------------|-------------------------------|
E|-------------------------------|-------------------------------|
                                                      In my   black 
e|------- ------- ------- 7------|------- ------- ------- -------|
B|----------------7B8------------|7------------------------------|
G|----------------9--------------|----------------9--------------|
D|--------9----------------------|--------9----------------------|
A|7------------------------------|-------------------------------|
E|-------------------------------|-------------------------------|





e|------- ------- 7------ -------|10----- ------- ------- -------|
B|--------7---------------7------|----------------12-------------|
G|7------------------------------|--------11--------------11-----|
D|-------------------------------|-------------------------------|
A|-------------------------------|-------------------------------|
E|-------------------------------|-------------------------------|
                                                      devil   
e|------- ------- ------- -------|------- ------- ------- -------|
B|------------------------7------|-------------------------------|
G|-------------------------------|7------------------------------|
D|----------------7--------------|--------7----------------------|
A|--------9----------------------|-------------------------------|
E|7------------------------------|-------------------------------|





e|12----- ------- ------- -------|12----- ------- ------- -------|
B|12-----------------------------|11-----------------------------|
G|13-----------------------------|12-----------------------------|
D|14-----------------------------|11-----------------------------|
A|-------------------------------|-------------------------------|
E|-------------------------------|-------------------------------|
  car,                            yeah 
e|7------ ------- ------- -------|9------ ------- ------- -------|
B|9-----------------------9------|8------------------------------|
G|9---------------9--------------|9------------------------------|
D|9-------9----------------------|8------------------------------|
A|7------------------------------|-------------------------------|
E|-------------------------------|-------------------------------|



                                

e|------- ------- ------- -------|------- ------- ------- -------|
B|-------------------------------|-------------------------------|
G|-------------------------------|-------------------------------|
D|-------------------------------|-------------------------------|
A|-------------------------------|-------------------------------|
E|-------------------------------|-------------------------------|





e|------- ------- ------- -------|------- ------- ------- -------|
B|-------------------------------|-------------------------------|
G|-------------------------------|-------------------------------|
D|------7/9---------5/7----------|--3/5-------------1/3-----1/3--|
A|-------------------------------|-------------------------------|
E|7-----------7---5-------5---3--|--------3---1-----------1------|

e|------- ------- ------- -------|------- ------- ------- -------|
B|-------------------------------|----6-----------4--------------|
G|--------8-----------6----------|4-------4-----------2----------|
D|----9-------9---7-------7---5--|------------3-----------3------|
A|-------------------------------|----------------------------5--|
E|-------------------------------|-------------------------------|





e|------- ------- ------- -------|------- ------- ------- -------|
B|-------------------------------|-------------------------------|
G|------5/7---------3/5----------|-------------------------------|
D|-------------------------------|--3/5-----1/2------------------|
A|5-----------5---3-------3------|-------------------------------|
E|----------------------------3--|--------0----------------------|
                                              Babe, you know 
e|------- ------- ------- -------|------- ------- ------- -------|
B|-------------------------------|----6---------------3----------|
G|----5-----------3--------------|4-------4-------1-------1------|
D|4-------------------2-------5--|------------2---------------2--|
A|--------5---3-----------3------|-------------------------------|
E|-------------------------------|-------------------------------|





e|---14-- ------- 12----- -------|---10-- ------- 8------ -------|
B|-------------------------------|-------------------------------|
G|14---------12--------------10--|------------8---------------7--|
D|-------------------------------|-------------------------------|
A|-------------------------------|-------------------------------|
E|-------------------------------|-------------------------------|
     You got such                     Now let me 
               a tight machine                 drive your dream 



e|----5-- ------- 3------ -------|------- ------- ------- -------|
B|-------------------------------|----6-----------3--------------|
G|--------7---5-----------5---4--|--------4---1------------------|
D|-------------------------------|-------------------------------|
A|-------------------------------|-------------------------------|
E|-------------------------------|-------------------------------|
      Until  your tank is dry 




e|---14-- ------- 12----- -------|---10-- ------- 8------ -------|
B|-------------------------------|-------------------------------|
G|14---------12-----------12-10--|------------8---------------7--|
D|-------------------------------|-------------------------------|
A|-------------------------------|-------------------------------|
E|-------------------------------|-------------------------------|
      I'm shooting from the hip       Not running out of clips 




e|----5-- ------- 3------ -------|------- ------- ------- -------|
B|-------------------------------|----6--------------------------|
G|--------7---5-----------5---4--|--------4---1------------------|
D|-------------------------------|-------------------------------|
A|-------------------------------|-------------------------------|
E|-------------------------------|-------------------------------|
  Flames of                                                   You 
         love and licking high 
e|------- ------- ------- -------|------- ------- ------- -------|
B|-------------------------------|----6---------------3----------|
G|-------------------------------|--------4-------1-------1------|
D|-------------------------------|------------2---------------2--|
A|-------------------------------|-------------------------------|
E|-------------------------------|-------------------------------|





e|---14-- ------- 12----- -------|---10-- ------- 8------ -------|  
B|-------------------------------|-------------------------------|
G|14---------12--------------10--|--------10--8---------------7--|
D|-------------------------------|-------------------------------|
A|-------------------------------|-------------------------------|
E|-------------------------------|-------------------------------|
  know    she'll always       be  runnin'     free            a 
e|------- ------- ------- -------|------- ------- ------- -------|
B|-------------------------------|----6-----------4--------------|
G|--------8-----------6----------|4-------4-----------2----------|
D|9-----------7-----------7---5--|------------3-----------3------|
A|-------------------------------|----------------------------5--|
E|-------------------------------|-------------------------------|





e|----7-- ------- 3------ -------|------- ------- ------- -------|
B|-------------------------------|----6-----------3---3----------|
G|------------5-----------5-\-4--|------------1-----------1------|
D|-------------------------------|-------------------------------|
A|-------------------------------|-------------------------------|
E|-------------------------------|-------------------------------|
  hot    freewheeling                 honey   bee
e|------- ------- ------- -------|------- ------- ------- -------|
B|-------------------------------|----6---------------3----------|
G|----5-----------3--------------|4-------4-------1-------1------|
D|4-------4-----------2-------5--|------------2---------------2--|
A|------------5-----------3------|-------------------------------|
E|-------------------------------|-------------------------------|   





e|---14-- ------- 12----- -------|---10-- ------- 8------ -------|   
B|-------------------------------|-------------------------------|
G|14---------12--------------10--|--------10--8---------------7--|
D|-------------------------------|-------------------------------|
A|-------------------------------|-------------------------------|
E|-------------------------------|-------------------------------|
  Won't   you let      me         push a  little  thrust  up you  
e|------- ------- ------- -------|------- ------- ------- -------|
B|-------------------------------|----6-----------4--------------|
G|--------8-----------6----------|4-------4-----------2----------|
D|9-----------7-----------7---5--|------------3-----------3------|
A|-------------------------------|----------------------------5--|
E|-------------------------------|-------------------------------|





e|----7-- ------- 3------ -------|------- ------- ------- -------|
B|-------------------------------|----6-----------3---3----------|
G|------------5-----------5-\-4--|------------1-----------1------|
D|-------------------------------|-------------------------------|
A|-------------------------------|-------------------------------|
E|-------------------------------|-------------------------------|
             That's what 
                      I wanna do
e|------- ------- ------- -------|------- ------- ------- -------|
B|-------------------------------|----6---------------3---3------|
G|----5-----------3--------------|4-------4-------1--------------|
D|4-------4-----------2-------5--|------------2------------------|
A|------------5-----------3------|-------------------------------|
E|-------------------------------|-------------------------------|   




e|------- ------- ------- -------|------- ------- ------- -------|
B|-------------------------------|-------------------------------|
G|-------------------------------|-------------------------------|
D|9-------9---9---7---7---7---5--|----5---5---3-------3---3---/--|
A|9-------9---9---7---7---7---5--|----5---5---3-------3---3---/--|
E|7-------7---0---5---5---0---3--|----3---0---1-------1---1---/--|
  Riding  around                                  In  my 




e|------- ------- ------- -------|------- ------- ------- -------|
B|-------------------------------|-------------------------------|
G|7-------7---7---5---5----------|-------------------------------|
D|7-------7---7---5---5-------5--|--------3---5---5B6R5---3---5--|
A|5-------5---0---3---3-------5--|----5--------------------------|
E|--------------------0-------3--|-------------------------------|
  black           devil       car                             I
e|------- ------- ------- -------|------- ------- ------- -------|
B|-------------------------------|--------10--12--12B13R1210--12-|
G|-------------------------------|----12--10--12--12B13R1210--12-|
D|-------------------------------|----12-------------------------|
A|-------------------------------|-------------------------------|
E|-------------------------------|-------------------------------|





e|------- ------- ------- -------|------- ------- ------- -------|
B|-------------------------------|-------------------------------|
G|-------------------------------|-------------------------------|
D|9-------9-------7---7-------5--|----5-------3-------3---3---3--|
A|9-------9-------7---7-------5--|----5-------3-------3---3---3--|
E|7-------7-------5---5-------3--|----3-------1-------1---1---1--|
  can't hear a sound                                  Because her 
e|------- ------- ------- -------|------- ------- ------- -------|
B|-------------------------------|-------------------------------|
G|-------------------------------|-------------------------------|
D|--------9-----------7----------|----5---------------3-------3--|
A|-------------------------------|-------------------------------|
E|7-----------3-/-5-----------3--|------------1-----------1------|

e|------- ------- ------- -------|------- ------- ------- -------|
B|-------------------------------|-------------------------------|
G|--------10-/-7-----------------|-------------------------------|
D|--------10-/-7-----------------|-------------------------------|
A|-------------------------------|-------------------------------|
E|-------------------------------|-------------------------------|





e|------- ------- ------- -------|------- ------- ------- -------|
B|-------------------------------|-------------------------------|
G|7-------7-------5---5----------|-------------------------------|
D|7-------7-------5---5-------5--|--------3---5---5B6R5---3---5--|
A|5-------5-------3---3-------5--|----5--------------------------|
E|----------------------------3--|-------------------------------|
  foot's  pushing down    too hard                            And 
e|------- ------- ------- -------|------- ------- ------- -------|
B|-------------------------------|--------10--12--12B13R1210--12-|
G|--------7-----------5----------|----12--10--12--12B13R1210--12-|
D|----------------------------5--|----12-------------------------|
A|5---------------3--------------|-------------------------------|
E|----------------------------3--|-------------------------------|

e|------- ------- ------- -------|------- ------- ------- -------|
B|-------------------------------|-------------------------------|
G|--------10-/-7-----------------|-------------------------------|
D|--------10-/-7-----------------|-------------------------------|
A|-------------------------------|-------------------------------|
E|-------------------------------|-------------------------------|





e|------- ------- ------- -------|------- ------- ------- -------|
B|-------------------------------|-------------------------------|
G|-------------------------------|-------------------------------|
D|9-------9-------7---7-------5--|----5-------3-------3---3---3--|
A|9-------9-------7---7-------5--|----5-------3-------3---3---3--|
E|7-------7-------5---5-------3--|----3-------1-------1---1---1--|
  white angels cry                                For her 
e|------- ------- ------- -------|------- ------- ------- -------|
B|-------------------------------|-------------------------------|
G|-------------------------------|-------------------------------|
D|--------9-----------7----------|----5---------------3-------3--|
A|-------------------------------|-------------------------------|
E|7-----------3-/-5-----------3--|------------1-----------1------|

e|------- ------- ------- -------|------- ------- ------- -------|
B|-------------------------------|-------------------------------|
G|--------10-/-7-----------------|-------------------------------|
D|--------10-/-7-----------------|-------------------------------|
A|-------------------------------|-------------------------------|
E|-------------------------------|-------------------------------|





e|------- ------- ------- -------|------- ------- ------- -------|
B|-------------------------------|-------------------------------|
G|7-------7-------5---5----------|-------------------------------|
D|7-------7-------5---5-------5--|--------3---5---5B6R5---3---5--|
A|5-------5-------3---3-------5--|----5--------------------------|
E|----------------------------3--|-------------------------------|
  black           devil       heart                           She
e|------- ------- ------- -------|------- ------- ------- -------|
B|-------------------------------|--------10--12--12B13R1210--12-|
G|--------7-----------5----------|----12--10--12--12B13R1210--12-|
D|----------------------------5--|----12-------------------------|
A|5---------------3--------------|-------------------------------|
E|----------------------------3--|-------------------------------|
 
e|------- ------- ------- -------|------- ------- ------- -------|
B|-------------------------------|-------------------------------|
G|--------10-/-7-----------------|-------------------------------|
D|--------10-/-7-----------------|-------------------------------|
A|-------------------------------|-------------------------------|
E|-------------------------------|-------------------------------|






e|------- ------- ------- -------|------- ------- ------- -------|
B|-------------------------------|-------------------------------|
G|-------------------------------|-------------------------------|
D|9-------9-------7---7-------5--|----5-------3-------3---3---3--|
A|9-------9-------7---7-------5--|----5-------3-------3---3---3--|
E|7-------7-------5---5-------3--|----3-------1-------1---1---1--|
  wants me to stop                She should never let me     start  
e|------- ------- ------- -------|------- ------- ------- -------|
B|-------------------------------|-------------------------------|
G|-------------------------------|-------------------------------|
D|--------9-----------7----------|----5---------------3-------3--|
A|-------------------------------|-------------------------------|
E|7-----------3-/-5-----------3--|------------1-----------1------|

e|------- ------- ------- -------|------- ------- ------- -------|
B|-------------------------------|-------------------------------|
G|--------10-/-7-----------------|-------------------------------|
D|--------10-/-7-----------------|-------------------------------|
A|-------------------------------|-------------------------------|
E|-------------------------------|-------------------------------|





e|------- ------- ------- -------|------- ------- ------- -------|
B|-------------------------------|-------------------------------|
G|7-------7-------5---5----------|-------------------------------|
D|7-------7-------5---5-------5--|--------3---5---5B6R5---3---5--|
A|5-------5-------3---3-------5--|----5--------------------------|
E|----------------------------3--|-------------------------------|
                                  She should never let me     start
e|------- ------- ------- -------|------- ------- ------- -------|
B|-------------------------------|--------10--12--12B13R1210--12-|
G|--------7-----------5----------|----12--10--12--12B13R1210--12-|
D|----------------------------5--|----12-------------------------|
A|5---------------3--------------|-------------------------------|
E|----------------------------3--|-------------------------------|    
 
e|------- ------- ------- -------|------- ------- ------- -------|
B|-------------------------------|-------------------------------|
G|--------10-/-7-----------------|-------------------------------|
D|--------10-/-7-----------------|-------------------------------|
A|-------------------------------|-------------------------------|
E|-------------------------------|-------------------------------|





e|------- ------- ------- -------|------- ------- ------- -------|
B|-------------------------------|-------------------------------|
G|-------------------------------|-------------------------------|
D|9-------9-------7---7-------5--|----5-------3-------3---3---3--|
A|9-------9-------7---7-------5--|----5-------3-------3---3---3--|
E|7-------7-------5---5-------3--|----3-------1-------1---1---1--|
  Strapped down,  wrapped around  Breaking up the speed   limits 
e|------- ------- ------- -------|------- ------- ------- -------|
B|-------------------------------|-------------------------------|
G|-------------------------------|-------------------------------|
D|--------9-----------7----------|----5---------------3-------3--|
A|-------------------------------|-------------------------------|
E|7-----------3-/-5-----------3--|------------1-----------1------|

e|------- ------- ------- -------|------- ------- ------- -------|
B|-------------------------------|-------------------------------|
G|--------10-/-7-----------------|-------------------------------|
D|--------10-/-7-----------------|-------------------------------|
A|-------------------------------|-------------------------------|
E|-------------------------------|-------------------------------|





e|------- ------- ------- -------|------- ------- ------- -------|
B|-------------------------------|-------------------------------|
G|7-------7-------5---5----------|-------------------------------|
D|7-------7-------5---5-------5--|--------3---5---5B6R5---3---5--|
A|5-------5-------3---3-------5--|----5--------------------------|
E|----------------------------3--|-------------------------------|
  Red     lights, crazy   nights  Hope she's 
                                          coming  back    with it 
e|------- ------- ------- -------|------- ------- ------- -------|
B|-------------------------------|--------10--12--12B13R1210--12-|
G|--------7-----------5----------|----12--10--12--12B13R1210--12-|
D|----------------------------5--|----12-------------------------|
A|5---------------3--------------|-------------------------------|
E|----------------------------3--|-------------------------------|

e|------- ------- ------- -------|------- ------- ------- -------|
B|-------------------------------|-------------------------------|
G|--------10-/-7-----------------|-------------------------------|
D|--------10-/-7-----------------|-------------------------------|
A|-------------------------------|-------------------------------|
E|-------------------------------|-------------------------------|





e|------- ------- ------- -------|------- ------- ------- -------|
B|-------------------------------|-------------------------------|
G|-------------------------------|-------------------------------|
D|9-------9-------7---7-------5--|----5-------3-------3---3---3--|
A|9-------9-------7---7-------5--|----5-------3-------3---3---3--|
E|7-------7-------5---5-------3--|----3-------1-------1---1---1--|
  Super   charged devil   queen   Stepping in my  love machine 
e|------- ------- ------- -------|------- ------- ------- -------|
B|-------------------------------|-------------------------------|
G|-------------------------------|-------------------------------|
D|--------9-----------7----------|----5---------------3-------3--|
A|-------------------------------|-------------------------------|
E|7-----------3-/-5-----------3--|------------1-----------1------|

e|------- ------- ------- -------|------- ------- ------- -------|
B|-------------------------------|-------------------------------|
G|--------10-/-7-----------------|-------------------------------|
D|--------10-/-7-----------------|-------------------------------|
A|-------------------------------|-------------------------------|
E|-------------------------------|-------------------------------|





e|------- ------- ------- -------|------- ------- ------- -------|
B|-------------------------------|-------------------------------|
G|7-------7-------5---5----------|-------------------------------|
D|7-------7-------5---5-------5--|--------3---5---5B6R5---3---5--|
A|5-------5-------3---3-------5--|----5--------------------------|
E|----------------------------3--|-------------------------------|
  Twisted my      metal   on  the highway of  desire      She's 
e|------- ------- ------- -------|------- ------- ------- -------|
B|-------------------------------|--------10--12--12B13R1210--12-|
G|--------7-----------5----------|----12--10--12--12B13R1210--12-|
D|----------------------------5--|----12-------------------------|
A|5---------------3--------------|-------------------------------|
E|----------------------------3--|-------------------------------|

e|------- ------- ------- -------|------- ------- ------- -------|
B|-------------------------------|-------------------------------|
G|--------10-/-7-----------------|-------------------------------|
D|--------10-/-7-----------------|-------------------------------|
A|-------------------------------|-------------------------------|
E|-------------------------------|-------------------------------|





e|------- ------- ------- -------|------- ------- ------- -------|
B|-------------------------------|-------------------------------|
G|-------------------------------|-------------------------------|
D|9-------9-------7---7-------5--|----5-------3-------3---3---3--|
A|9-------9-------7---7-------5--|----5-------3-------3---3---3--|
E|7-------7-------5---5-------3--|----3-------1-------1---1---1--|
  easy    rindin' super   flyin'  95         it's still   green 
e|------- ------- ------- -------|------- ------- ------- -------|
B|-------------------------------|-------------------------------|
G|-------------------------------|-------------------------------|
D|--------9-----------7----------|----5---------------3-------3--|
A|-------------------------------|-------------------------------|
E|7-----------3-/-5-----------3--|------------1-----------1------|

e|------- ------- ------- -------|------- ------- ------- -------|
B|-------------------------------|-------------------------------|
G|--------10-/-7-----------------|-------------------------------|
D|--------10-/-7-----------------|-------------------------------|
A|-------------------------------|-------------------------------|
E|-------------------------------|-------------------------------|





e|------- ------- ------- -------|------- ------- ------- -------|
B|-------------------------------|-------------------------------|
G|7-------7-------5---5----------|-------------------------------|
D|7-------7-------5---5-------5--|--------3---5---5B6R5---3---5--|
A|5-------5-------3---3-------5--|----5--------------------------|
E|----------------------------3--|-------------------------------|
  High    heels,  shiny   wheels  Looking for a   tight   squeeze
e|------- ------- ------- -------|------- ------- ------- -------|
B|-------------------------------|--------10--12--12B13R1210--12-|
G|--------7-----------5----------|----12--10--12--12B13R1210--12-|
D|----------------------------5--|----12-------------------------|
A|5---------------3--------------|-------------------------------|
E|----------------------------3--|-------------------------------|
 
e|------- ------- ------- -------|------- ------- ------- -------|
B|-------------------------------|-------------------------------|
G|--------10-/-7-----------------|-------------------------------|
D|--------10-/-7-----------------|-------------------------------|
A|-------------------------------|-------------------------------|
E|-------------------------------|-------------------------------|





e|------- ------- ------- -------|------- ------- ------- -------|
B|-------------------------------|-------------------------------|
G|-------------------------------|-------------------------------|
D|9-------9-------7---7-------5--|----5-------3-------3---3---3--|
A|9-------9-------7---7-------5--|----5-------3-------3---3---3--|
E|7-------7-------5---5-------3--|----3-------1-------1---1---1--|
  Rocket fuel and jet     juice   Now she's getting real  loose 
e|------- ------- ------- -------|------- ------- ------- -------|
B|-------------------------------|-------------------------------|
G|-------------------------------|-------------------------------|
D|--------9-----------7----------|----5---------------3-------3--|
A|-------------------------------|-------------------------------|
E|7-----------3-/-5-----------3--|------------1-----------1------|

e|------- ------- ------- -------|------- ------- ------- -------|
B|-------------------------------|-------------------------------|
G|--------10-/-7-----------------|-------------------------------|
D|--------10-/-7-----------------|-------------------------------|
A|-------------------------------|-------------------------------|
E|-------------------------------|-------------------------------|





e|------- ------- ------- -------|------- ------- ------- -------|
B|-------------------------------|-------------------------------|
G|7-------7-------5---5----------|-------------------------------|
D|7-------7-------5---5-------5--|--------3---5---5B6R5---3---5--|
A|5-------5-------3---3-------5--|----5--------------------------|
E|----------------------------3--|-------------------------------|
  Can't   stop,   black   heart   She should never stop a start                                 
e|------- ------- ------- -------|------- ------- ------- -------|
B|-------------------------------|--------10--12--12B13R1210--12-|
G|--------7-----------5----------|----12--10--12--12B13R1210--12-|
D|----------------------------5--|----12-------------------------|
A|5---------------3--------------|-------------------------------|
E|----------------------------3--|-------------------------------|
 
e|------- ------- ------- -------|------- ------- ------- -------|
B|-------------------------------|-------------------------------|
G|--------10-/-7-----------------|-------------------------------|
D|--------10-/-7-----------------|-------------------------------|
A|-------------------------------|-------------------------------|
E|-------------------------------|-------------------------------|





e|------- ------- ------- -------|------- ------- ------- -------|
B|-------------------------------|-------------------------------|
G|-------------------------------|-------------------------------|
D|9-------9-------7---7-------5--|----5-------3-------3---3---3--|
A|9-------9-------7---7-------5--|----5-------3-------3---3---3--|
E|7-------7-------5---5-------3--|----3-------1-------1---1---1--|
  She's           just    a       love    machine
e|------- ------- ------- -------|------- ------- ------- -------|
B|-------------------------------|-------------------------------|
G|-------------------------------|-------------------------------|
D|--------9-----------7----------|----5---------------3-------3--|
A|-------------------------------|-------------------------------|
E|7-----------3-/-5-----------3--|------------1-----------1------|

e|------- ------- ------- -------|------- ------- ------- -------|
B|-------------------------------|-------------------------------|
G|--------10-/-7-----------------|-------------------------------|
D|--------10-/-7-----------------|-------------------------------|
A|-------------------------------|-------------------------------|
E|-------------------------------|-------------------------------|





e|------- ------- ------- -------|------- ------- ------- -------|
B|-------------------------------|-------------------------------|
G|7-------7-------5---5----------|-------------------------------|
D|7-------7-------5---5-------5--|--------3---5---5B6R5---3---5--|
A|5-------5-------3---3-------5--|----5--------------------------|
E|----------------------------3--|-------------------------------|
  She's           just    a       love    machine
e|------- ------- ------- -------|------- ------- ------- -------|
B|-------------------------------|--------10--12--12B13R1210--12-|
G|--------7-----------5----------|----12--10--12--12B13R1210--12-|
D|----------------------------5--|----12-------------------------|
A|5---------------3--------------|-------------------------------|
E|----------------------------3--|-------------------------------|

e|------- ------- ------- -------|------- ------- ------- -------|
B|-------------------------------|-------------------------------|
G|--------10-/-7-----------------|-------------------------------|
D|--------10-/-7-----------------|-------------------------------|
A|-------------------------------|-------------------------------|
E|-------------------------------|-------------------------------|





e|------- ------- ------- -------|------- ------- ------- -------|
B|-------------------------------|-------------------------------|
G|-------------------------------|-------------------------------|
D|9-------9-------7---7-------5--|----5-------3-------3---3---3--|
A|9-------9-------7---7-------5--|----5-------3-------3---3---3--|
E|7-------7-------5---5-------3--|----3-------1-------1---1---1--|
  She's           just    a       love    machine
e|------- ------- ------- -------|------- ------- ------- -------|
B|-------------------------------|-------------------------------|
G|-------------------------------|-------------------------------|
D|--------9-----------7----------|----5---------------3-------3--|
A|-------------------------------|-------------------------------|
E|7-----------3-/-5-----------3--|------------1-----------1------|

e|------- ------- ------- -------|------- ------- ------- -------|
B|-------------------------------|-------------------------------|
G|--------10-/-7-----------------|-------------------------------|
D|--------10-/-7-----------------|-------------------------------|
A|-------------------------------|-------------------------------|
E|-------------------------------|-------------------------------|





e|------- ------- ------- -------|------- ------- ------- -------|
B|-------------------------------|-------------------------------|
G|7-------7-------5---5----------|-------------------------------|
D|7-------7-------5---5-------5--|--------3---5---5B6R5---3---5--|
A|5-------5-------3---3-------5--|----5--------------------------|
E|----------------------------3--|-------------------------------|
  She's           just    a       love    machine
e|------- ------- ------- -------|------- ------- ------- -------|
B|-------------------------------|--------10--12--12B13R1210--12-|
G|--------7-----------5----------|----12--10--12--12B13R1210--12-|
D|----------------------------5--|----12-------------------------|
A|5---------------3--------------|-------------------------------|
E|----------------------------3--|-------------------------------|

e|------- ------- ------- -------|------- ------- ------- -------|
B|-------------------------------|-------------------------------|
G|--------10-/-7-----------------|-------------------------------|
D|--------10-/-7-----------------|-------------------------------|
A|-------------------------------|-------------------------------|
E|-------------------------------|-------------------------------|
  ..............................Fade.............................
  



e|------- ------- ------- -------|------- ------- ------- -------|
B|-------------------------------|-------------------------------|
G|-------------------------------|-------------------------------|
D|9-------9-------7---7-------5--|----5-------3-------3---3---3--|
A|9-------9-------7---7-------5--|----5-------3-------3---3---3--|
E|7-------7-------5---5-------3--|----3-------1-------1---1---1--|
  She's           just    a       love    machine
e|------- ------- ------- -------|------- ------- ------- -------|
B|-------------------------------|-------------------------------|
G|-------------------------------|-------------------------------|
D|--------9-----------7----------|----5---------------3-------3--|
A|-------------------------------|-------------------------------|
E|7-----------3-/-5-----------3--|------------1-----------1------|

e|------- ------- ------- -------|------- ------- ------- -------|
B|-------------------------------|-------------------------------|
G|--------10-/-7-----------------|-------------------------------|
D|--------10-/-7-----------------|-------------------------------|
A|-------------------------------|-------------------------------|
E|-------------------------------|-------------------------------|
  ...............................................................




e|------- ------- ------- -------|------- ------- ------- -------|
B|-------------------------------|-------------------------------|
G|7-------7-------5---5----------|-------------------------------|
D|7-------7-------5---5-------5--|--------3---5---5B6R5---3---5--|
A|5-------5-------3---3-------5--|----5--------------------------|
E|----------------------------3--|-------------------------------|
  She's           just    a       love    machine
e|------- ------- ------- -------|------- ------- ------- -------|
B|-------------------------------|--------10--12--12B13R1210--12-|
G|--------7-----------5----------|----12--10--12--12B13R1210--12-|
D|----------------------------5--|----12-------------------------|
A|5---------------3--------------|-------------------------------|
E|----------------------------3--|-------------------------------|

e|------- ------- ------- -------|------- ------- ------- -------|
B|-------------------------------|-------------------------------|
G|--------10-/-7-----------------|-------------------------------|
D|--------10-/-7-----------------|-------------------------------|
A|-------------------------------|-------------------------------|
E|-------------------------------|-------------------------------|
  ...............................................................




e|------- ------- ------- -------|------- ------- ------- -------|
B|-------------------------------|-------------------------------|
G|-------------------------------|-------------------------------|
D|9-------9-------7---7-------5--|----5-------3-------3---3---3--|
A|9-------9-------7---7-------5--|----5-------3-------3---3---3--|
E|7-------7-------5---5-------3--|----3-------1-------1---1---1--|
  She's           just    a       love    machine
e|------- ------- ------- -------|------- ------- ------- -------|
B|-------------------------------|-------------------------------|
G|-------------------------------|-------------------------------|
D|--------9-----------7----------|----5---------------3-------3--|
A|-------------------------------|-------------------------------|
E|7-----------3-/-5-----------3--|------------1-----------1------|

e|------- ------- ------- -------|------- ------- ------- -------|
B|-------------------------------|-------------------------------|
G|--------10-/-7-----------------|-------------------------------|
D|--------10-/-7-----------------|-------------------------------|
A|-------------------------------|-------------------------------|
E|-------------------------------|-------------------------------|
  ...............................................................








        B  Bend
        R  Release
        /  Slide up
        \  Slide down
        H  Hammer-on
        P  Pull-off
        ~  Vibrato
        +  Harmonic
        x  Mute note
        .  Play note like a dot in standard notation
        ^  Ties two notes together
        (. Pause
comments
We did not receive enough feedback on this tab! Please rate:
print report bad tab
1 2 3 4 5
I want to post or [tab]
guest
You may want to rate the tab now too:
select rating
Please do not post tabs as comments. Select "correction" instead!