Oops, an error
Loading. Please wait.

Love Blind Tab

1,339 views 3 this week
1 commentread comment
1 2 3 4 5
excellent!
x 1
Autoscroll
+/-
esc
set tempo
stop
Contributor
WARNING: You are trying to view
                                    content from Ultimate-Guitar.com
                                    in an unauthorized application,
                                    which is prohibited.

                                    Please use an official Ultimate
                                    Guitar Tabs application for iPhone,
                                    iPad or Android to access legitimate
                                    chords, guitar, bass, and drum tabs
                                    from Ultimate-Guitar.com database.

                                    Type "ultimate guitar tabs" in Apple
                                    App Store's or Android Market's
                                    search to find the application.
-----------------------------------------------------------------

      JAMIROQUAI - LOVE BLIND. From DYNAMITE album. Released 15th
                   June 2005.

-----------------------------------------------------------------

      Tabbed by:PJVillanueva






Love blind and you're on my mind 
Even when I'm walking the dog 
I'm carefree like this melody 
Hope this doesn't take us too long 

Baby, turn me on 
You put fire in me every night 
I need the drug you got to give 
Keep it like that 'cos it's positive 

Can't leave you alone 
Step in the car let me take you home 
Slide right up and make you bend 
Now we did it once, can we do it again? 

[Chorus:] 
Baby, you got me hanging off the streetlights 
You got me singing with the bluebirds 
In the sky above 
I think I'm in love 

Step to me, angel eyes 
You got the shake and I got the fries 
All black leather like a disco bitch 
Five feet nine with your ruby lips 

You made me love blind 
And I can't get you off my mind 
Mama said stay away from girls like you 
Turn out the lights, I know what to do 

Baby, rock the floor 
You gonna rock the floor tonight 
Baby, rock the floor 
Baby, rock the floor 
Baby, rock the floor 
You gonna rock the floor tonight 
Baby, rock the floor 
Baby, rock the floor 
Rock the floor tonight 

[Chorus] 

And you got me dancing on the ceiling 
You got me thinking that the whole world 
It revolves around you 
So what can I do? 
What to do? 

Baby, rock the floor 
Baby, rock the floor 
Baby, rock the floor 
Kiss me twice and I need some more 

Yeah, you're gonna rock the floor tonight 

You've got me hanging off the streetlights 
You've got me climbing up the wall 
Everything you do reminds me of the good times 
Woah, baby, you know you made me so love blind 

You're gonna rock the floor tonight 
You're gonna rock the floor tonight 
You're gonna rock the floor tonight 
You're gonna rock the floor tonig 




                                     
  Db          Eb                  Abmaj7      Dm7
e|------- ------- ------- -------|------- ------- ------- -------|
B|6-----------8------------------|4-----------6------------------|
G|6-----------8-------8----------|5-----------5------------------|
D|6-----------8------------------|5-----------7------------------|
A|4-----------6------------------|------------5-------5-------5--|
E|-------------------------------|4------------------------------|
  Love        blind      and      on      my  mind 
                              you're


e|------- ------- ------- -------|------- ------- ------- -------|
B|--------6---8------------------|--------4---6------------------|
G|----6-------8-------8----------|----5-------5------------------|
D|6-----------8------------------|5-----------7-----------7------|
A|4-----------6------------------|------------5-------5-------5--|
E|-------------------------------|4------------------------------|
  Even   when I'm walking the dog                             I'm



e|------- ------- ------- -------|3------ ----5-- ------- -------|
B|6-----------8------------------|4-----------6------------------|
G|6-----------8-------8-------8--|5-----------5-------7----------|
D|6-----------8------------------|5-----------7---------------7--|
A|4-----------6------------------|------------5------------------|
E|-------------------------------|4------------------------------|
  carefree               like this melody 


  Gm7         G7                  F#7             
e|------- ------- ------- -------|------- ------- ------- -------|
B|3-----------3------------------|2---------------2--------------|
G|3-----------4------------------|3---------------3--------------|
D|3-----------3------------------|2---------------2--------------|
A|------------5------------------|4---------------4--------------|
E|3-----------3------------------|2---------------2--------------|
  
e|------- ------- ------- -------|------- ------- ------- 16-----|
B|-------------------------------|------------------------19B21-R|
G|-------------------------------|-------------------------------|
D|-------------------------------|-------------------------------|
A|-------------------------------|-------------------------------|
E|-------------------------------|-------------------------------|
  Hope    doesn't take us too long 
      this

  Ab                              F
e|------- ------- ------- -------|------- ------- ------- -------|
B|-------------------------------|-------------------------------|
G|5------------------------------|2------------------------------|
D|6------------------------------|3------------------------------|
A|-------------------------------|-------------------------------|
E|4------------------------------|1------------------------------|

e|16----D ------- ----16- ----16-|16----- ------D ------- -------|   
B|19B21---------------119B21--21-|21-----------------------------|
G|-------------------------------|-------------------------------|
D|-------------------------------|-------------------------------|
A|-------------------------------|-------------------------------|
E|-------------------------------|-------------------------------|



  G                               Eb
e|------- ------- ------- -------|------- ------- ------- -------|
B|-------------------------------|-------------------------------|
G|4------------------------------|0------------------------------|
D|5------------------------------|1------------------------------|
A|-------------------------------|-------------------------------|
E|3------------------------------|3------------------------------|

e|16----\ ------- ------- -------|------- ------- ------- 16-----|
B|19B21-\------------------------|------------------------19B21--|
G|-------------------------------|-------------------------------|
D|-------------------------------|-------------------------------|
A|-------------------------------|-------------------------------|
E|-------------------------------|-------------------------------|




e|------- ------- ------- -------|------- ------- ------- -------|
B|-------------------------------|-------------------------------|
G|5------------------------------|2------------------------------|
D|6------------------------------|3------------------------------|
A|-------------------------------|-------------------------------|
E|4------------------------------|1------------------------------|

e|----8-- ------- ------- -------|----13- ------- ------- -------|
B|-------------------------------|-------------------------------|
G|5-------5--~-------------------|10------10--~------------------|
D|-------------------------------|-------------------------------|
A|-------------------------------|-------------------------------|
E|-------------------------------|-------------------------------|
  Baby,  turn me on       You put fire    in me   every night 



e|------- ------- ------- -------|------- ------- ------- -------|
B|-------------------------------|-------------------------------|
G|4------------------------------|0------------------------------|
D|5------------------------------|1------------------------------|
A|-------------------------------|-------------------------------|
E|3------------------------------|3------------------------------|

e|----7-- ------- ------- -------|----12- ------- ------- -------|
B|-------------------------------|--------12---------------------|
G|4-------4--~-------------------|9----------9\8-----------------|
D|-------------------------------|-------------------------------|
A|-------------------------------|-------------------------------|
E|-------------------------------|-------------------------------|
  
e|------- ------- ------- -------|------- ------- ------- 16-----|
B|-------------------------------|------------------------19B21-R|
G|-------------------------------|-------------------------------|
D|-------------------------------|-------------------------------|
A|-------------------------------|-------------------------------|
E|-------------------------------|-------------------------------|
  I need  you got  to give        Keep it   'cos it's 
     the drug                         like that   positive 


e|------- ------- ------- -------|------- ------- ------- -------|
B|-------------------------------|-------------------------------|
G|5------------------------------|2------------------------------|
D|6------------------------------|3------------------------------|
A|-------------------------------|-------------------------------|
E|4------------------------------|1------------------------------|

e|----8-- ------- ------- -------|----13- ------- ------- -------|
B|-------------------------------|-------------------------------|
G|5-------5--~-------------------|10------10--~------------------|
D|-------------------------------|-------------------------------|
A|-------------------------------|-------------------------------|
E|-------------------------------|-------------------------------|
  
e|16----- ------- ------- -------|------- ------- ------- -------|
B|19B21--------------------------|-------------------------------|
G|-------------------------------|-------------------------------|
D|-------------------------------|-------------------------------|
A|-------------------------------|-------------------------------|
E|-------------------------------|-------------------------------|
  Can't leave             Step in         let me  take 
          you alone           the car               you home 


e|------- ------- ------- -------|------- ------- ------- -------|
B|-------------------------------|-------------------------------|
G|4------------------------------|0------------------------------|
D|5------------------------------|1------------------------------|
A|-------------------------------|-------------------------------|
E|3------------------------------|3------------------------------|

e|----7-- ------- ------- -------|------- ------- ------- -------|
B|-------------------------------|--------11---------------------|
G|4-------4--~-------------------|9---9-------8------------------|
D|-------------------------------|-------------------------------|
A|-------------------------------|-------------------------------|
E|-------------------------------|-------------------------------|
  Slide     and make  you bend    Now we  once,   do it   Baby,
    right up                        did it    can we  again?

  Fm7                             Bbm7        C7
e|8------ ------- ------- -------|------- ------- ------- -------|
B|9------------------------------|6-----------8------------------|
G|8------------------------------|6-----------9------------------|
D10------------------------------|6-----------8------------------|
A|8------------------------------|8----------10------------------|
E|-------------------------------|6-----------8------------------|
  
e|------- ------- ------- -------|------- ------- ------- -------|    
B|-------------------------------|-------------------------------|
G|---1010---------10---10--------|10--1010--12--12--10----10--~--|
D|-------------------------------|-------------------------------|
A|-------------------------------|-------------------------------|
E|-------------------------------|-------------------------------|
  you     got me  hanging off the street      lights 


  Fm7                             Db7        Eb
e|8------ ------- ------- -------|------- ------- ------- -------|
B|9------------------------------|9-----------8------------------|
G|8------------------------------10-----------8------------------|
D10------------------------------|9-----------8------------------|
A|8------------------------------11-----------6------------------|
E|-------------------------------|9------------------------------|
      
e|------- ------- ------- -------|------- ------- ------- -------|    
B|-------------------------------|-------------------------------|
G|---1010---------10---10--------|10--1010--12--12--10----10--~--|
D|-------------------------------|-------------------------------|
A|-------------------------------|-------------------------------|
E|-------------------------------|-------------------------------|
      You got me singing with the bluebirds               In the 


  Abmaj7      Dm7                 G7
e|3------ ----5-- ------- -------|3------ ------- ------- -------|
B|4-----------6------------------|3------------------------------|
G|5-----------5------------------|4------------------------------|
D|5-----------7------------------|3------------------------------|
A|------------5------------------|-------------------------------|
E|4------------------------------|3------------------------------|
  
e|------- ------- ------- -------|------- ------- ------- -------|    
B|-------------------------------|-------------------------------|
G|---1010------------1010--------|---1010------------1010--------|
D|----------1010--10--------1010-|9-----------10-------------10--|
A|-------------------------------|-------------------------------|
E|-------------------------------|-------------------------------|
  sky above                                   I  think I'm in love 


  F#7
e|2------ ------- ------- -------|
B|2------------------------------|
G|3------------------------------|
D|2------------------------------|
A|-------------------------------|
E|2------------------------------|

e|------- ------- ------- -------|
B|-------------------------------|
G|---1010---12-12B13-10-1210--~--|
D|8------------------------------|
A|-------------------------------|
E|-------------------------------|

e|------- ------- ------- 16-----|
B|------------------------19B21--|
G|-------------------------------|
D|-------------------------------|
A|-------------------------------|
E|-------------------------------|



  Ab                              F
e|------- ------- ------- -------|------- ------- ------- -------|
B|-------------------------------|-------------------------------|
G|5------------------------------|2------------------------------|
D|6------------------------------|3------------------------------|
A|-------------------------------|-------------------------------|
E|4------------------------------|1------------------------------|

e|----8-- ------- ------- -------|----13- ------- ------- -------|
B|-------------------------------|-------------------------------|
G|5-------5--~-------------------|10------10--~------------------|
D|-------------------------------|-------------------------------|
A|-------------------------------|-------------------------------|
E|-------------------------------|-------------------------------|
                              
e|16----- ------- ------- -------|------- ------- ------- -------|
B|19B21--------------------------|-------------------------------|
G|-------------------------------|-------------------------------|
D|-------------------------------|-------------------------------|
A|-------------------------------|-------------------------------|
E|-------------------------------|-------------------------------|
  Step   angel eyes       You got        and  I   got the 
    to me,                   the  shake                 fries    

  G                               Eb
e|------- ------- ------- -------|------- ------- ------- -------|
B|-------------------------------|-------------------------------|
G|4------------------------------|0------------------------------|
D|5------------------------------|1------------------------------|
A|-------------------------------|-------------------------------|
E|3------------------------------|3------------------------------|

e|----7-- ------- ------- -------|----12- ------- ------- -------|
B|-------------------------------|--------12---------------------|
G|4-------4--~-------------------|9----------9\8-----------------|
D|-------------------------------|-------------------------------|
A|-------------------------------|-------------------------------|
E|-------------------------------|-------------------------------|
  
e|------- ------- ------- -------|------- ------- ------- 16-----|
B|-------------------------------|------------------------19B21-R|
G|-------------------------------|-------------------------------|
D|-------------------------------|-------------------------------|
A|-------------------------------|-------------------------------|
E|-------------------------------|-------------------------------|
  All     leather                 Five feet 
   black   like a disco                   nine    ruby lips 
                      bitch                  with your      

e|------- ------- ------- -------|------- ------- ------- -------|
B|-------------------------------|-------------------------------|
G|5------------------------------|2------------------------------|
D|6------------------------------|3------------------------------|
A|-------------------------------|-------------------------------|
E|4------------------------------|1------------------------------|

e|----8-- ------- ------- -------|----13- ------- ------- -------|
B|-------------------------------|-------------------------------|
G|5-------5--~-------------------|10------10--~------------------|
D|-------------------------------|-------------------------------|
A|-------------------------------|-------------------------------|
E|-------------------------------|-------------------------------|
            
e|16----- 16----\ ------- -------|------- ------- ------- -------|
B|19B21---19B21-\----------------|-------------------------------|
G|-------------------------------|-------------------------------|
D|-------------------------------|-------------------------------|
A|-------------------------------|-------------------------------|
E|-------------------------------|-------------------------------|
  You made   blind        And I   can't   get you off my mind 
       me love


e|------- ------- ------- -------|------- ------- ------- -------|
B|-------------------------------|-------------------------------|
G|4------------------------------|0------------------------------|
D|5------------------------------|1------------------------------|
A|-------------------------------|-------------------------------|
E|3------------------------------|3------------------------------|

e|----7-- ------- ------- -------|----12- ------- ------- -------|
B|-------------------------------|--------12---------------------|
G|4-------4--~-------------------|9-----------8------------------|
D|-------------------------------|-------------------------------|
A|-------------------------------|-------------------------------|
E|-------------------------------|-------------------------------|
  
e|------- ------- ------- -------|------- ------- ------- 16-----|
B|-------------------------------|------------------------19B21-R|
G|-------------------------------|-------------------------------|
D|-------------------------------|-------------------------------|
A|-------------------------------|-------------------------------|
E|-------------------------------|-------------------------------|  
  Mama said       girls           Turn out  I know what  
          stay      like you          the lights,     to do
            away from 

e|------- ------- ------- -------|------- ------- ------- -------|
B|-------------------------------|-------------------------------|
G|5------------------------------|2------------------------------|
D|6------------------------------|3------------------------------|
A|-------------------------------|-------------------------------|
E|4------------------------------|1------------------------------|

e|----8-- ------- ------- -------|----13- ------- ------- -------|
B|-------------------------------|--------13---------------------|
G|5-------5--~-------------------|10----------10--~--------------|
D|-------------------------------|-------------------------------|
A|-------------------------------|-------------------------------|
E|-------------------------------|-------------------------------|
    
e|16----- ------- ------- -------|------- ------- ------- -------|
B|19B21--------------------------|-------------------------------|
G|-------------------------------|-------------------------------|
D|-------------------------------|-------------------------------|
A|-------------------------------|-------------------------------|
E|-------------------------------|-------------------------------|
  Baby,   rock the floor          Baby,   rock the floor 
                Yeah, you gonna   rock    the floor       tonight



e|------- ------- ------- -------|------- ------- ------- -------|
B|-------------------------------|-------------------------------|
G|4------------------------------|0------------------------------|
D|5------------------------------|1------------------------------|
A|-------------------------------|-------------------------------|
E|3------------------------------|3------------------------------|

e|----7-- ------- ------- -------|12----- ------- ------- -------|
B|-------------------------------|----12-------------------------|
G|4-------4---4--~------------9--|--------8----------------------|
D|-------------------------------|-------------------------------|
A|-------------------------------|-------------------------------|
E|-------------------------------|-------------------------------|
  
e|------- ------- ------- -------|------- ------- ------- 16-----|
B|-------------------------------|------------------------19B21-R|
G|-------------------------------|-------------------------------|
D|-------------------------------|-------------------------------|
A|-------------------------------|-------------------------------|
E|-------------------------------|-------------------------------|
  Baby,   rock the floor          Baby,   rock the floor 



e|------- ------- ------- -------|------- ------- ------- -------|
B|-------------------------------|-------------------------------|
G|5------------------------------|2------------------------------|
D|6------------------------------|3------------------------------|
A|-------------------------------|-------------------------------|
E|4------------------------------|1------------------------------|

e|----8-- ------- ------- -------|----13- ------- ------- -------|
B|-------------------------------|-------------------------------|
G|5-------5--~-------------------|10------10--~------------------|
D|-------------------------------|-------------------------------|
A|-------------------------------|-------------------------------|
E|-------------------------------|-------------------------------|
    
e|16----- ------- ------- -------|------- ------- ------- -------|
B|19B21--------------------------|-------------------------------|
G|-------------------------------|-------------------------------|
D|-------------------------------|-------------------------------|
A|-------------------------------|-------------------------------|
E|-------------------------------|-------------------------------|
  Baby,   rock the floor          Baby,   rock the floor 
                Yeah, you gonna   rock    the floor       tonight


e|------- ------- ------- -------|------- ------- ------- -------|
B|-------------------------------|-------------------------------|
G|4------------------------------|0------------------------------|
D|5------------------------------|1------------------------------|
A|-------------------------------|-------------------------------|
E|3------------------------------|3------------------------------|

e|----7-- ------- ------- -------|------- ------- ------- -------|
B|--------7----------------------|-------------------------------|
G|4-----------4--~---------------|-------------------------------|
D|-------------------------------|-------------------------------|
A|-------------------------------|-------------------------------|
E|-------------------------------|-------------------------------|
  Baby,   rock the floor         
                                  Rock    the floor       tonight        

  Fm7                             Bbm7        C7
e|8------ ------- ------- -------|------- ------- ------- -------|
B|9------------------------------|6-----------8------------------|
G|8------------------------------|6-----------9------------------|
D10------------------------------|6-----------8------------------|
A|8------------------------------|8----------10------------------|
E|-------------------------------|6-----------8------------------|
  
e|------- ------- ------- -------|------- ------- ------- -------|   
B|-------------------------------|-------------------------------|
G|---1010---------10---10----1010|10--1010--12--12--10----10--~--|
D|-------------------------------|-------------------------------|
A|-------------------------------|-------------------------------|
E|-------------------------------|-------------------------------|
  you     got me  hanging off the street      lights 


  Fm7                             Db7         Eb
e|8------ ------- ------- -------|------- ------- ------- -------|
B|9------------------------------|9-----------8------------------|
G|8------------------------------10-----------8------------------|
D10------------------------------|9-----------8------------------|
A|8------------------------------11-----------6------------------|
E|-------------------------------|9------------------------------|
      
e|------- ------- ------- -------|------- ------- ------- -------|    
B|-------------------------------|-------------------------------|
G|---1010---------10---10----1010|10--1010--12--12--10----10--~--|
D|-------------------------------|-------------------------------|
A|-------------------------------|-------------------------------|
E|-------------------------------|-------------------------------|
      You got me singing with the bluebirds               In the 


  Abmaj7      Dm7                 G7
e|3------ ----5-- ------- -------|3------ ------- ------- -------|
B|4-----------6------------------|3------------------------------|
G|5-----------5------------------|4------------------------------|
D|5-----------7------------------|3------------------------------|
A|------------5------------------|-------------------------------|
E|4------------------------------|3------------------------------|
  
e|------- ------- ------- -------|------- ------- ------- -------|    
B|-------------------------------|-------------------------------|
G|---1010------------1010--------|---1010------------1010--------|
D|------------10-------------1010|9-----------9---9----------10--|  
A|-------------------------------|-------------------------------|
E|-------------------------------|-------------------------------|
  sky above                                   I  think I'm in love 


  F#7
e|2------ ------- ------- -------|
B|2------------------------------|
G|3------------------------------|
D|2------------------------------|
A|-------------------------------|
E|2------------------------------|

e|------- ------- ------- -------|
B|-------------------------------|
G|---1010---12-12B13-10-1210--~--|
D|8------------------------------|
A|-------------------------------|
E|-------------------------------|

e|------- ------- ------- 16-----|
B|------------------------19B21--|
G|-------------------------------|
D|-------------------------------|
A|-------------------------------|
E|-------------------------------|        
                              And


  Fm7                             Bbm7        C7
e|8------ ------- ------- -------|------- ------- ------- -------|
B|9------------------------------|6-----------8------------------|
G|8------------------------------|6-----------9------------------|
D10------------------------------|6-----------8------------------|
A|8------------------------------|8----------10------------------|
E|-------------------------------|6-----------8------------------|
  
e|------- ------- ------- -------|------- ------- ------- -------|    
B|-------------------------------|-------------------------------|
G|---1010---------10---10----1010|10--1010--12--12--10----10--~--|
D|-------------------------------|-------------------------------|
A|-------------------------------|-------------------------------|
E|-------------------------------|-------------------------------|
  you     got me  dancing on  the ceiling  


  Fm7                             Db7         Eb
e|8------ ------- ------- -------|------- ------- ------- -------|
B|8------------------------------|9-----------8------------------|
G|8------------------------------10-----------8------------------|
D10------------------------------|9-----------8------------------|
A|8------------------------------11-----------6------------------|
E|-------------------------------|9------------------------------|
      
e|------- ------- ------- -------|------- ------- ------- -------|    
B|-------------------------------|-------------------------------|
G|---1010---------10---10----1010|10--1010--12--12--10----10--~--|
D|-------------------------------|-------------------------------|
A|-------------------------------|-------------------------------|
E|-------------------------------|-------------------------------|
      You got me thinking that the whole      world       It revolves 


  Abmaj7      Dm7                 G7
e|3------ ----5-- ------- -------|3------ ------- ------- -------|
B|4-----------6------------------|3------------------------------|
G|5-----------5------------------|4------------------------------|
D|5-----------7------------------|3------------------------------|
A|------------5------------------|-------------------------------|
E|4------------------------------|3------------------------------|
  
e|------- ------- ------- -------|------- ------- ------- -------| 
B|-------------------------------|-------------------------------|
G|---1010------------1010--------|---1010------------1010--------|
D|------------10-------------1010|9-----------10--10---------10--|
A|-------------------------------|-------------------------------|
E|-------------------------------|-------------------------------|
    'round                                    So  what can    I 
       you

  F#7
e|2------ ------- ------- -------|
B|2------------------------------|
G|3------------------------------|
D|2------------------------------|
A|-------------------------------|
E|2------------------------------|

e|------- ------- ------- -------|
B|-------------------------------|
G|---1010---12-12B13-10-1210--~--|
D|8------------------------------|
A|-------------------------------|
E|-------------------------------|

e|------- ------- ------- 16-----|
B|------------------------19B21--|
G|-------------------------------|
D|-------------------------------|
A|-------------------------------|
E|-------------------------------|  
  do? 


  Ab                              F
e|------- ------- ------- -------|------- ------- ------- -------|
B|-------------------------------|-------------------------------|
G|5------------------------------|2------------------------------|
D|6------------------------------|3------------------------------|
A|-------------------------------|-------------------------------|
E|4------------------------------|1------------------------------|

e|----8-- ------- ------- -------|----13- ------- ------- -------|
B|-------------------------------|--------13---------------------|
G|5-------5--~-------------------|10----------10--~--------------|
D|-------------------------------|-------------------------------|
A|-------------------------------|-------------------------------|
E|-------------------------------|-------------------------------|
    
e|16----- ------- ------- -------|------- ------- ------- -------|
B|19B21--------------------------|-------------------------------|
G|-------------------------------|-------------------------------|
D|-------------------------------|-------------------------------|
A|-------------------------------|-------------------------------|
E|-------------------------------|-------------------------------|  
  Baby,   rock the floor          Baby,   rock the floor          
  Baby                            Baby              

  G                               Eb
e|------- ------- ------- -------|------- ------- ------- -------|
B|-------------------------------|-------------------------------|
G|4------------------------------|0------------------------------|
D|5------------------------------|1------------------------------|
A|-------------------------------|-------------------------------|
E|3------------------------------|3------------------------------|

e|----7-- ------- ------- -------|12----- ------- ------- -------|
B|-------------------------------|----12-------------------------|
G|4-------4--~----------------9--|--------8----------------------|
D|-------------------------------|-------------------------------|
A|-------------------------------|-------------------------------|
E|-------------------------------|-------------------------------|
  
e|------- ------- ------- -------|------- ------- ------- 16-----|
B|-------------------------------|------------------------19B21-R|
G|-------------------------------|-------------------------------|
D|-------------------------------|-------------------------------|
A|-------------------------------|-------------------------------|
E|-------------------------------|-------------------------------|
  Baby,   rock the floor          Kiss me twice   need some   
  Baby                                      and I        more


e|------- ------- ------- -------|------- ------- ------- -------|
B|-------------------------------|-------------------------------|
G|5------------------------------|2------------------------------|
D|6------------------------------|3------------------------------|
A|-------------------------------|-------------------------------|
E|4------------------------------|1------------------------------|

e|----8-- ------- ------- -------|----13- ------- ------- -------|
B|-------------------------------|-------------------------------|
G|5-------5--~-------------------|10------10--~------------------|
D|-------------------------------|-------------------------------|
A|-------------------------------|-------------------------------|
E|-------------------------------|-------------------------------|
    
e|16----- ------- ------- -------|------- ------- ------- -------|
B|19B21--------------------------|-------------------------------|
G|-------------------------------|-------------------------------|
D|-------------------------------|-------------------------------|
A|-------------------------------|-------------------------------|
E|-------------------------------|-------------------------------|  
                Yeah, you gonna   rock    the floor       tonight        



e|------- ------- ------- -------|------- ------- ------- -------|
B|-------------------------------|-------------------------------|
G|4------------------------------|0------------------------------|
D|5------------------------------|1------------------------------|
A|-------------------------------|-------------------------------|
E|3------------------------------|3------------------------------|

e|----7-- ------- ------- -------|---11-- ------- ------- -------|
B|--------7----------------------|-------------------------------|
G|4-----------4--~---------------|8------------------------------|
D|-------------------------------|-------------------------------|
A|-------------------------------|-------------------------------|
E|-------------------------------|-------------------------------|
           
e|------- ------- ------- -------|------- ------- ------- -----15|
B|-------------------------------|------------------------12-16--|
G|-------------------------------|----------------------12-------|
D|-------------------------------|-------------------13----------|
A|-------------------------------|----------------14-------------|
E|-------------------------------|-------------------------------|

                                  

   3/4
  Abmaj7
e|--------- --------- ---------|-------13 -------13 ---------|
B|4----------------------------|-----------------------------|
G|5----------------------------|-----------------------------|
D|5----------------------------|-----------------------------|
A|-----------------------------|-----------------------------|
E|4----------------------------|-----------------------------|
  You've                       got   me  
e|--------- --------- ---------|-------13 -------13 ---------|
B|-----------------------------|-----------------------------|
G|-----------------------------|-----------------------------|
D|-----------------------------|-----------------------------|
A|-----------------------------|-----------------------------|
E|-----------------------------|-----------------------------|



  D7-9
e|--------- --------- ---------|--------- --------- ---------|
B|6----------------------------|-----------------------------|
G|5----------------------------|-----------------------------|
D|4----------------------------|-----------------------------|
A|5----------------------------|-----------------------------|
E|-----------------------------|-----------------------------|
  hanging                                 off    the    street 
e|--------- --------- ---------|--------- --------- ---------|
B|13---------------------------|-----------------------------|
G|13---------------------------10H12P10-9-8---------12---11--|
D|15---------------------------|-----------------------------|
A|-----------------------------|-----------------------------|
E|-----------------------------|-----------------------------|



  G7
e|--------- --------- ---------|--------- --------- ---------|
B|6----------------------------|-----------------------------|
G|4----------------------------|-----------------------------|
D|3----------------------------|-----------------------------|
A|-----------------------------|-----------------------------|
E|3----------------------------|-----------------------------|
     lights                       
e|--13--13- 13--13--13--13--13-|--------- --------- ---------|
B|-----------------------------|----------12-----------------|
G|10--10--10--10--10--10--10--10----------12--------13-------|
D|-----------------------------|-----------------------------|
A|-----------------------------|-----------------------------|
E|-----------------------------|-----------------------------|



  
e|--------- --------- ---------|--------- --------- ---------|
B|6----------------------------|-----------------------------|
G|4----------------------------|-----------------------------|
D|3----------------------------|-----------------------------|
A|-----------------------------|-----------------------------|
E|3----------------------------|-----------------------------|

e|--------- --------- ---------|--------- --------- ---------|
B|--------------------11-------|----------10--------9--------|
G|12-------------------9-------|-----------9--------9--------|
D|-----------------------------|-----------------------------|
A|-----------------------------|-----------------------------|
E|-----------------------------|-----------------------------|




  Abmaj7
e|--------- --------- ---------|--------- --------- ---------|
B|4----------------------------|-----------------------------|
G|5----------------------------|-----------------------------|
D|5----------------------------|-----------------------------|
A|-----------------------------|-----------------------------|
E|4----------------------------|-----------------------------|
  You've                                  got    me    climbing 
e|--------- --------- ---------11-------- 10------- ----11---|
B|-----------------------------|9----------9-----------------|
G|-8---------------------------|8----------8-----------------|
D|10---------------------------|-----------------------------|
A|-----------------------------|-----------------------------|
E|-----------------------------|-----------------------------|



  D7-9
e|--------- --------- ---------|--------- --------- ---------|
B|6----------------------------|-----------------------------|
G|5----------------------------|-----------------------------|
D|4----------------------------|-----------------------------|
A|5----------------------------|-----------------------------|
E|-----------------------------|-----------------------------|
                                          up   the   wall 
e|10------- --------- ---------|--------- --------- ---------|
B|13---------------------------|----------13-----------------|
G|10---------------------------|-------------------------10--|
D|12---------------------------|-----------------------------|
A|-----------------------------|-----------------------------|
E|-----------------------------|-----------------------------|



  G7
e|--------- --------- ---------|--------- --------- ---------|
B|6----------------------------|-----------------------------|
G|4----------------------------|-----------------------------|
D|3----------------------------|-----------------------------|
A|-----------------------------|-----------------------------|
E|3----------------------------|-----------------------------|

e|10------- --------- ---------|--------- --------- ---------|
B|12---------------------------|-----12---12-----------------|
G|10---------------------------|--------------------12-------|
D|12---------------------------|-----12---12---------9-------|
A|-----------------------------|-----------------------------|
E|-----------------------------|-----------------------------|




e|--------- --------- ---------|--------- --------- ---------|
B|6----------------------------|-----------------------------|
G|4----------------------------|-----------------------------|
D|3----------------------------|-----------------------------|
A|-----------------------------|-----------------------------|
E|3----------------------------|-----------------------------|       

e|--------- --------- ---------|--------- --------- ---------|
B|-----------------------------|-----------------------------|
G|10---------------------------|7-------------------7--------|
D|-9---------------------------|-----------------------------|
A|-----------------------------|5-------------------5--------|
E|-----------------------------|-----------------------------|




  Abmaj7
e|--------- --------- ---------|--------- --------- ---------|
B|4----------------------------|-----------------------------|
G|5----------------------------|-----------------------------|
D|5----------------------------|-----------------------------|
A|-----------------------------|-----------------------------|
E|4----------------------------|-----------------------------|
  Everything    you   do        do             do reminds 
e|--------- --------- ---------|--------- --------- ---------|
B|-----------------------------|-----------------------------|
G|--7---7---7---7---7---7---7--|--8---8---8---8---8---8---8--|
D|--6---6---6---6---6---6---6--|--6---6---6---6---6---6---6--|
A|5---5---5---5---5---5---5---5|6---6---6---6---6---6---6---6|
E|-----------------------------|-----------------------------|



  D7-9
e|--------- --------- ---------|--------- --------- ---------|
B|6----------------------------|-----------------------------|
G|5----------------------------|-----------------------------|
D|4----------------------------|-----------------------------|
A|5----------------------------|-----------------------------|
E|-----------------------------|-----------------------------|
       me                                           of the good  
e|--------- --------- ---------|--------- --------- ---------|
B|-----------------------------|-----------------------------|
G|-10--10--10--10--10--10--10--|--12--12--12--12--12--12--12-|
D|-10--10--10--10--10--10--10--|--10--10--10--10--10--10--10-|
A|8---8---8---8---8---8---8---8|10--10--10--10--10--10--10--10
E|-----------------------------|-----------------------------|


                                   
  G7
e|--------- --------- ---------|--------- --------- ---------|
B|6----------------------------|-----------------------------|
G|4----------------------------|-----------------------------|
D|3----------------------------|-----------------------------|
A|-----------------------------|-----------------------------|
E|3----------------------------|-----------------------------|
      times
e|--------- --------- ---------|--------- --------- 10-------|
B|-12--12--12--12--12----------|-----------------------------|
G|-10--10--10--10--10----------|-------------------7--------8|
D|9---9---9---9---9---9--------|-----------------------------|
A|-----------------------------|-----------------------------|
E|-----------------------------|-----------------------------|




e|--------- --------- ---------|--------- --------- ---------|
B|6----------------------------|-----------------------------|
G|4----------------------------|-----------------------------|
D|3----------------------------|-----------------------------|
A|-----------------------------|-----------------------------|
E|3----------------------------|-----------------------------|        
                                          Woah,         
e|11------- --------- 10-------|9-------- --------- ---------|
B|----------12-----------------|-----------------------------|
G|-------------------7--------6|----------12--------11-------|
D|--------9--------------------|-----------------------------|
A|-----------------------------|--------10--------9----------|
E|-----------------------------|-----------------------------|




  Abmaj7
e|--------- --------- ---------|--------- --------- ---------|
B|4----------------------------|-----------------------------|
G|5----------------------------|-----------------------------|
D|5----------------------------|-----------------------------|
A|-----------------------------|-----------------------------|
E|4----------------------------|-----------------------------|
  baby,                                       you  know you made 
e|--------- --------- ---------|--------- --------- ---------|
B|-----------------------------|-----------------------------|
G|-10--10--10--10--10----------|-8---------------------------|
D|-10--10--10--10--10----------|10---------------------------|
A|8---8---8---8---8---8--------|-8---------------------------|
E|-----------------------------|-----------------------------|



  D7-9
e|--------- --------- ---------|--------- --------- ---------|
B|6----------------------------|-----------------------------|
G|5----------------------------|-----------------------------|
D|4----------------------------|-----------------------------|
A|5----------------------------|-----------------------------|
E|-----------------------------|-----------------------------|
       me                              so      love       blind 
e|--------- --------- ---------|--------- --------- ---------|
B|-----------------------------|-----------------------------|
G|7----------------------------|5----------------------------|
D|6----------------------------|6----------------------------|
A|5----------------------------|5----------------------------|
E|-----------------------------|-----------------------------|


                                   
  G7
e|--------- --------- ---------|--------- --------- ---------|
B|6----------------------------|-----------------------------|
G|4----------------------------|-----------------------------|
D|3----------------------------|-----------------------------|
A|-----------------------------|-----------------------------|
E|3----------------------------|-----------------------------|
  
e|--7---7-- 7---7---7 --7---7--|7---7---7 --7---7-- 7---7----|
B|--6---6---6---6---6---6---6--|6---6---6---6---6---6---6----|
G|-----------------------------|-----------------------------|
D|5---5---5---5---5---5---5---5|--5---5---5---5---5---5---5--|
A|-----------------------------|-----------------------------|
E|-----------------------------|-----------------------------|




e|--------- --------- ---------|--------- --------- ---------|
B|-----------------------------|-----------------------------|
G|-----------------------------|-----------------------------|
D|-----------------------------|-----------------------------|
A|-----------------------------|-----------------------------|
E|-----------------------------|-----------------------------|    



  Ab                              F
e|------- ------- ------- -------|------- ------- ------- -------|
B|-------------------------------|-------------------------------|
G|5------------------------------|2------------------------------|
D|6------------------------------|3------------------------------|
A|-------------------------------|-------------------------------|
E|4------------------------------|1------------------------------|
                Yeah, you gonna   rock    the floor       tonight


  G                               Eb
e|------- ------- ------- -------|------- ------- ------- -------|
B|-------------------------------|-------------------------------|
G|4------------------------------|0------------------------------|
D|5------------------------------|1------------------------------|
A|-------------------------------|-------------------------------|
E|3------------------------------|3------------------------------|

e|------- ------- ------- -------|------- ------- ------- 16-----|
B|-------------------------------|------------------------19B21-R|
G|-------------------------------|-------------------------------|
D|-------------------------------|-------------------------------|
A|-------------------------------|-------------------------------|
E|-------------------------------|-------------------------------|




e|------- ------- ------- -------|------- ------- ------- -------|
B|-------------------------------|-------------------------------|
G|5------------------------------|2------------------------------|
D|6------------------------------|3------------------------------|
A|-------------------------------|-------------------------------|
E|4------------------------------|1------------------------------|
                
e|16----- ------- ------- -------|------- ------- ------- -------|
B|19B21--------------------------|-------------------------------|
G|-------------------------------|-------------------------------|
D|-------------------------------|-------------------------------|
A|-------------------------------|-------------------------------|
E|-------------------------------|-------------------------------|
                Yeah, you gonna   rock    the floor       tonight

                                      

e|------- ------- ------- -------|------- ------- ------- -------|
B|-------------------------------|-------------------------------|
G|4------------------------------|0------------------------------|
D|5------------------------------|1------------------------------|
A|-------------------------------|-------------------------------|
E|3------------------------------|3------------------------------|

e|------- ------- ------- -------|------- ------- ------- 16-----|
B|-------------------------------|------------------------19B21-R|
G|-------------------------------|-------------------------------|
D|-------------------------------|-------------------------------|
A|-------------------------------|-------------------------------|
E|-------------------------------|-------------------------------|




e|------- ------- ------- -------|------- ------- ------- -------|
B|-------------------------------|-------------------------------|
G|5------------------------------|2------------------------------|
D|6------------------------------|3------------------------------|
A|-------------------------------|-------------------------------|
E|4------------------------------|1------------------------------|
                                                       
e|------- ------- ------- -------|13----- ------- ------- -------|
B|-------------------------------|----13-------------------------|
G|----------------------------10-|--------10--~------------------|
D|-------------------------------|-------------------------------|
A|-------------------------------|-------------------------------|
E|-------------------------------|-------------------------------|

e|16----- ------- ------- -------|------- ------- ------- -------|
B|19B21--------------------------|-------------------------------|
G|-------------------------------|-------------------------------|
D|-------------------------------|-------------------------------|
A|-------------------------------|-------------------------------|
E|-------------------------------|-------------------------------| 
                Yeah, you gonna   rock    the floor       tonight

                                      

e|------- ------- ------- -------|------- ------- ------- -------|
B|-------------------------------|-------------------------------|
G|4------------------------------|0------------------------------|
D|5------------------------------|1------------------------------|
A|-------------------------------|-------------------------------|
E|3------------------------------|3------------------------------| 

e|----7-- ------- ------- -------|12----- ------- ------- -------|
B|-------------------------------|----12-------------------------|
G|4-------4--~----------------9--|--------8--~-------------------|
D|-------------------------------|-------------------------------|
A|-------------------------------|-------------------------------|
E|-------------------------------|-------------------------------|

e|------- ------- ------- -------|------- ------- ------- 16-----|
B|-------------------------------|------------------------19B21-R|
G|-------------------------------|-------------------------------|
D|-------------------------------|-------------------------------|
A|-------------------------------|-------------------------------|
E|-------------------------------|-------------------------------|




e|------- ------- ------- -------|------- ------- ------- -------|
B|-------------------------------|-------------------------------|
G|5------------------------------|2------------------------------|
D|6------------------------------|3------------------------------|
A|-------------------------------|-------------------------------|
E|4------------------------------|1------------------------------|

e|----8-- ------- ------- -------|----13- ------- ------- -------|
B|-------------------------------|-------------------------------|
G|5-------5--~-------------------|10------10--~---------------4--|
D|-------------------------------|-------------------------------|
A|-------------------------------|-------------------------------|
E|-------------------------------|-------------------------------|
                
e|16----- ------- ------- -------|------- ------- ------- -------|
B|19B21--------------------------|-------------------------------|
G|-------------------------------|-------------------------------|
D|-------------------------------|-------------------------------|
A|-------------------------------|-------------------------------|
E|-------------------------------|-------------------------------|
                Yeah, you gonna   rock    the floor       tonight

                                      

e|------- ------- ------- -------|------- ------- ------- -------|
B|-------------------------------|-------------------------------|
G|4------------------------------|0------------------------------|
D|5------------------------------|1------------------------------|
A|-------------------------------|-------------------------------|
E|3------------------------------|3------------------------------|

e|7------ ------- ------- -------|---11-- ------- ------- -------|
B|----7--------------------------|-------------------------------|
G|--------4--~-------------------|8-----------------------10-----|
D|-------------------------------|-------------------------------|
A|-------------------------------|-------------------------------|
E|-------------------------------|-------------------------------|

e|------- ------- ------- -------|------- ------- ------- 16-----|
B|-------------------------------|------------------------19B21-R|
G|-------------------------------|-------------------------------|
D|-------------------------------|-------------------------------|
A|-------------------------------|-------------------------------|
E|-------------------------------|-------------------------------|





e|------- ------- ------- -------|------- ------- ------- -------|
B|-------------------------------|-------------------------------|
G|-------------------------------|-------------------------------|
D|-------------------------------|-------------------------------|
A|11-\---------------------------|-------------------------------|
E|-------------------------------|-------------------------------|

e|------- -10---- ------- -------|------- ------- ------- -------|
B|--------9----------------------|-------------------------------|
G|-------------------------------|-------------------------------|
D|-------------------------------|-------------------------------|
A|-------------------------------|-------------------------------|
E|-------------------------------|-------------------------------|

e|11----- ------- ------- -------|------- ------- ------- -------|
B|-------------------------------|-------------------------------|
G|-------------------------------|-------------------------------|
D|-------------------------------|-------------------------------|
A|-------------------------------|-------------------------------|
E|-------------------------------|-------------------------------|







        D  Tremolo bar diving
        B  Bend
        R  Release/Release tremolo bar
        /  Slide up
        \  Slide down
        H  Hammer-on
        P  Pull-off
        ~  Vibrato
        +  Harmonic
        x  Mute note
        .  Play note like a dot in standard notation
        ^  Ties two notes together
        (. Pause
comments
We did not receive enough feedback on this tab! Please rate:
print report bad tab
1 2 3 4 5
1 comment total.
0 reply
Despicable Hero wrote on June 28 2010, 10:23 am

Awesome tab !!!

Jamiroquai rules. I would spend quite some time to figure out all this chords. Thanks a lot!

I want to post or [tab]
guest
You may want to rate the tab now too:
select rating
Please do not post tabs as comments. Select "correction" instead!