Oops, an error
Loading. Please wait.

Eleven Blue Egyptians Tab

7,264 views 18 this week
no commentswrite comment
1 2 3 4 5
excellent!
x 4
add to favorites launch autoscroll
font size
0
reset
Autoscroll
+/-
esc
set tempo
stop
Contributor
WARNING: You are trying to view
                                    content from Ultimate-Guitar.com
                                    in an unauthorized application,
                                    which is prohibited.

                                    Please use an official Ultimate
                                    Guitar Tabs application for iPhone,
                                    iPad or Android to access legitimate
                                    chords, guitar, bass, and drum tabs
                                    from Ultimate-Guitar.com database.

                                    Type "ultimate guitar tabs" in Apple
                                    App Store's or Android Market's
                                    search to find the application.
                         Jason Becker/Perpetual Burn
                           "Eleven Blue Egyptians"

------------------------------------------------------------------------|
------------------------------------------------------------------------|
-----------7-------------------7----------------------------------------|
--------------11--8--7--8--11-----11--8--7------8--7--------------------|
-------------------------------------------8-7-------8-7----------------|
----------------------------------------------------------9~------------|

------------------------------------------------------------------------|
------------------------------------------------------------------------|
------------------------------------------------------------------------|
--------------------2--------------3--2-----------2--------------3------|
--------------------0-----0--0-----1--0--0--0-----0-----0--0-----1------|
------------------------------------------------------------------------|

------------------------------------------------------------------------|
------------------------------------------------------------------------|
------------------------------------------------------------------------|
----2--------------2--------------3--2--------------------------3-------|
----0--0--0--------0-----0--0-----1--0-----0--0--------------x--1-------|
------------------------------------------------------------------------|

------------------------------------------------------------------------|
-------------------------------------------------------------6----------|
-------------------------------------------------------5--7--3----------|
----------5--------2--------------3--2-----------------3--5-------------|
-------x--3--------0-----0--0-----1--0--0--0----------------------------|
------------------------------------------------------------------------|

------------------------------------------------------------------------|
------------------------------------------------------------------------|
----------------------------------7-------------------7-----------------|
----2--------------3--2--------------11--8--7--8--11-----11--8--7-------|
----0-----0--0-----1--0--0--0-------------------------------------------|
------------------------------------------------------------------------|

------------------------------------------------------------------------|
------------------------------------------------------------------------|
------------------------------------------------------------------------|
-------8--7-------------------------------------------------------------|
--8--7-------8--7-------------------------------------------------------|
------------------9~----------------------------------------------------|

------------------------------------------------------------------------|
------------------------------------------------------------------------|
------------------------------------------------------------------------|
--------------------2--------------3--2-----------2--------------3------|
--------------------0-----0--0-----1--0--0--0-----0-----0--0-----1------|
------------------------------------------------------------------------|

------------------------------------------------------------------------|
------------------------------------------------------------------------|
------------------------------------------------------------------------|
----2--------------2--------------3--2--------------------------3-------|
----0--0--0--------0-----0--0-----1--0-----0--0--------------x--1-------|
------------------------------------------------------------------------|

------------------------------------------------------------------------|
-------------------------------------------------------------6----------|
-------------------------------------------------------5--7--3----------|
----------5--------2--------------3--2-----------------3--5-------------|
-------x--3--------0-----0--0-----1--0--0--0----------------------------|
------------------------------------------------------------------------|

------------------------------------------------------------------------|
------------------------------------------------------------------------|
----------------------------------7-------------------7-----------------|
----2--------------3--2--------------11--8--7--8--11-----11--8--7-------|
----0-----0--0-----1--0--0--0-------------------------------------------|
------------------------------------------------------------------------|

----------------------------------------|-------------------------------|
----------------------------------------|-------------------------------|
----------------------------------------|-------------------------------|
-------8--7-----------------------------|------------------6^--7--------|
--8--7-------8--7-----------------------|---------7-----8---------------|
------------------9~--------------------|-------------------------------|


------------------------------------------------------------------------|
------------------------------------------------------------------------|
------------------------------------------------------------------------|
----8-----7-----6-------------------------------------------------------|
-------------------8--7--5-----7-----5--4-------------------------------|
----------------------------------------------5^--(5)-------------------|

------------------------------------------------------------------------|
------------------------------------------------------------------------|
-----------7-------------------7----------------------------------------|
--------------11--8--7--8--11-----11--8--7------8--7--------------------|
-------------------------------------------8-7-------8-7----------------|
----------------------------------------------------------9~------------|


------------------------------------------------------------------------|
------------------------------------------------------------------------|
------------------------------------------------------------------------|
----------------------6^--7-----8-----7-----6---------------------------|
-------------7-----8---------------------------8--7--5-----7-----5------|
------------------------------------------------------------------------|

------------------------------------------------------------------------|
------------------------------------------------------------------------|
-------------------------7-------------------7--------------------------|
----------------------------11--8--7--8--11-----11--8--7------8--7------|
----4----------------------------------------------------8-7------------|
----------5^--(5)-------------------------------------------------------|

------------------------------------------------------------------------|
------------------------------------------------------------------------|
------------------------------------------------------------------------|
------------------------------------------------------------------------|
--8--7------------------------------------------------------------------|
-------9~---------------------------------------------------------------|

  The riff goes something like this:
------------------------------------------------------------------------|
------------------------------------------------------------------------|
------------------------------------------------------------------------|
------------------------------------------------------------------------|
---------8-7-5---------7-5-7-5-7------------8-7-5-----------8--7--9-----|
-0-0-0-0-------6-0-0-0--------------0-0-0-0-------6-0-0-0-0-6--5--7-----|

  And the lead over that:
------------------------------------------------------------------------|
---------------------12~----10--12--12/15-----12^15---------------------|
------------------------------------------------------------------------|
------------------------------------------------------------------------|
------------------------------------------------------------------------|
------------------------------------------------------------------------|

------------------------------------------------------------------------|
----^12--------10~-------13-----12--10--------12~-----------------------|
------------------------------------------------------------9--10-------|
--------------------------------------------------------12--------------|
------------------------------------------------------------------------|
------------------------------------------------------------------------|


--------8--13--12~-------12--13--12--10--12--10------10-----------------|
----10-------------------------------------------13------12--13--12-----|
------------------------------------------------------------------------|
------------------------------------------------------------------------|
------------------------------------------------------------------------|
------------------------------------------------------------------------|

------------------------------------------------------------------------|
----10--12--10-----------------------12~----10--12--12/15-----12^15-----|
----------------13--10--9~----------------------------------------------|
------------------------------------------------------------------------|
------------------------------------------------------------------------|
------------------------------------------------------------------------|

------------------------------------------------------------------------|
----^12--------10~-------13-----12--10--------12~-----------------------|
------------------------------------------------------------9--10-------|
--------------------------------------------------------12--------------|
------------------------------------------------------------------------|
------------------------------------------------------------------------|

--------8--13--12~------------------------------------------------------|
----10------------------------------------------------------------------|
-----------------------------------9-----------10-----------7~----------|
------------------------------------------------------------------------|
------------------------------------------------------------------------|
------------------------------------------------------------------------|


                                                  w/bar
------------------------------------------------------------------------|
------------------------------------------------------------------------|
------------7\---5--------9-----------10---------/12~-------------10----|
------------------------------------------------------------------------|
------------------------------------------------------------------------|
------------------------------------------------------------------------|

------------------------------------------------------------------------|
------------------------------------------------------------------------|
----^12^10^12--------7-----------9--------9^5~----------5^---4----------|
------------------------------------------------------------------------|
------------------------------------------------------------------------|
------------------------------------------------------------------------|


                        w/bar
------------------------------------------------------------------------|
------------------------------------------------------------------------|
----7-----------9------/---10~~~~~~--9h10---------9-----------10--------|
------------------------------------------------------------------------|
------------------------------------------------------------------------|
------------------------------------------------------------------------|

------------------------------------------------------------------------|
------------------------------------------------------------------------|
----------10^7~-------------7\---5--------9-----------10---------/------|
------------------------------------------------------------------------|
------------------------------------------------------------------------|
------------------------------------------------------------------------|


    w/bar
------------------------------------------------------------------------|
------------------------------------------------------------------------|
----12~-------------12p10p9h10-----------7-----------9--------9p5~------|
------------------------------------------------------------------------|
------------------------------------------------------------------------|
------------------------------------------------------------------------|


                                                    w/bar
------------------------------------------------------------------------|
------------------------------------------------------------------------|
---------------5^---4--------7-----------9------/---10~-------9h10------|
------------------------------------------------------------------------|
------------------------------------------------------------------------|
------------------------------------------------------------------------|

------------------------------------------------------------------------|
------------------------------------------------------------------------|
---------------7-------------------7------------------------------------|
------------------11--8--7--8--11-----11--8--7------8--7----------------|
-----------------------------------------------8-7--------8--7----------|
------------------------------------------------------------------------|

----------------------|-------------------------------------------------|
----------------------|-------------------------------------------------|
----------------------|-------------------------------------------------|
----------------------|-----------------6^--7-----8-----7-----6---------|
----------------------|--------7-----8---------------------------8------|
---9~-----------------|-------------------------------------------------|

------------------------------------------------------------------------|
------------------------------------------------------------------------|
------------------------------------------------------------------------|
------------------------------------------------------------------------|
----7--5-----7-----5--4-------------------------------------------------|
----------------------------5^--(5)-------------------------------------|

------------------------------------------------------------------------|
------------------------------------------------------------------------|
---------------7-------------------7------------------------------------|
------------------11--8--7--8--11-----11--8--7------8--7----------------|
-----------------------------------------------8-7--------8--7----------|
------------------------------------------------------------------------|

----------------------|-------------------------------------------------|
----------------------|-------------------------------------------------|
----------------------|-------------------------------------------------|
----------------------|-----------------6^--7-----8-----7-----6---------|
----------------------|--------7-----8---------------------------8------|
---9~-----------------|-------------------------------------------------|

------------------------------------------------------------------------|
------------------------------------------------------------------------|
------------------------------------------------------------------------|
------------------------------------------------------------------------|
----7--5-----7-----5--4-------------------------------------------------|
----------------------------5^--(5)-------------------------------------|

------------------------------------------------------------------------|
-------------------------------------------------------------------12~--|
-----------7-------------------7----------------------------------------|
--------------11--8--7--8--11-----11--8--7------8--7--------------------|
-------------------------------------------8-7-------8-7----------------|
----------------------------------------------------------9~------------|

------------------------------------------------------------------------|
---------10--12--12/15-----12h15p12--------10~-------13-----12--10------|
------------------------------------------------------------------------|
------------------------------------------------------------------------|
------------------------------------------------------------------------|
------------------------------------------------------------------------|

--------------------------------------8--13--12~-------12--13--12-------|
-------------12~------------------10------------------------------------|
---------------------------9--10----------------------------------------|
-----------------------12-----------------------------------------------|
------------------------------------------------------------------------|
------------------------------------------------------------------------|

----10--12--10------10--------------------------------------------------|
----------------13------12--13--12--10--12--10--------------------------|
------------------------------------------------13--10--9~--------------|
------------------------------------------------------------------------|
------------------------------------------------------------------------|
------------------------------------------------------------------------|

------------------------------------------------------------------------|
----12~----10--12--12/15-----12h15p12--------10~-------13-----12--10----|
------------------------------------------------------------------------|
------------------------------------------------------------------------|
------------------------------------------------------------------------|
------------------------------------------------------------------------|

-----------------------------------8--13--12~---------------------------|
----------12~------------------10---------------------------------------|
------------------------9--10---------------------------------9---------|
--------------------12--------------------------------------------------|
------------------------------------------------------------------------|
------------------------------------------------------------------------|

------------------------------------------------------------------------|
------------------------------------------------------------------------|
----------10-----------7~-------------7\---5--------9-----------10------|
------------------------------------------------------------------------|
------------------------------------------------------------------------|
------------------------------------------------------------------------|


            w/bar
------------------------------------------------------------------------|
------------------------------------------------------------------------|
-----------/12~~~-----------10h12p10h12--------7-----------9------------|
------------------------------------------------------------------------|
------------------------------------------------------------------------|
------------------------------------------------------------------------|


                                                       w/bar
------------------------------------------------------------------------|
------------------------------------------------------------------------|
----9p5~----------5p---4--------7-----------9------/---10~-------9------|
------------------------------------------------------------------------|
------------------------------------------------------------------------|
------------------------------------------------------------------------|

------------------------------------------------------------------------|
------------------------------------------------------------------------|
----h10---------9-----------10-----------10p7~~~---~~~-----7\---5-------|
------------------------------------------------------------------------|
------------------------------------------------------------------------|
------------------------------------------------------------------------|


                               w/bar
------------------------------------------------------------------------|
------------------------------------------------------------------------|
-------9-----------10---------/12~~~-----------12p10p9h10---------------|
------------------------------------------------------------------------|
------------------------------------------------------------------------|
------------------------------------------------------------------------|

------------------------------------------------------------------------|
------------------------------------------------------------------------|
----7-----------9--------9p5~----------5p---4--------7-----------9------|
------------------------------------------------------------------------|
------------------------------------------------------------------------|
------------------------------------------------------------------------|


         w/bar
------------------------------------------------------------------------|
------------------------------------------------------------------------|
--------/---10~-------9h10----------------------------------------------|
------------------------------------------------------------------------|
------------------------------------------------------------------------|
------------------------------------------------------------------------|

-----------------------------------------------------------------------------|
--------------------------------------------------10-------------------------|
-----------------9-------------------------9-10-12--12-10-9-------------9-10-|
----------9-10-12-12-10-9-----------9-10-12----------------12-10-9-10-12-----|
---8-10-12---------------12-10-8--12-----------------------------------------|
-12--------------------------------------------------------------------------|


------------10-12-13-/15----------12-13-15-/17-----------13-15-17-/19--------|
----10-12-13--------------12-13-15---------------13-15-17--------------------|
-12--------------------------------------------------------------------------|
-----------------------------------------------------------------------------|
-----------------------------------------------------------------------------|
-----------------------------------------------------------------------------|


keep pressed tap tap  tap             t       t       t
-(15)--------19---\17--\15--13--(15)-^17^15---20^15---22^15~-----------------|
-----------------------------------------------------------------------------|
-----------------------------------------------------------------------------|
-----------------------------------------------------------------------------|
-----------------------------------------------------------------------------|
-----------------------------------------------------------------------------|

------------17-21------------------------17-21-----------------------------------|
---17-21-19------19-22-21-19-----17-21-19-----19-22-21-19------------------------|
-18-------------------------21-18------------------------21----------------------|
---------------------------------------------------------------------------------|
---------------------------------------------------------------------------------|
---------------------------------------------------------------------------------|

------------16-20----------------------------16-20---------------------------|
---16-20-18-------18-21-20-18--------16-20-18-----18-21-20-18----------------|
-17--------------------------20----17------------------------20--------------|
-----------------------------------------------------------------------------|
-----------------------------------------------------------------------------|
-----------------------------------------------------------------------------|

-----------15-19---------------------------15-19-----------------------------|
---15-19-17------17-20-19-17-------15-19-17------17-20-19-17-----------------|
-16-------------------------19---16-------------------------19---------------|
-----------------------------------------------------------------------------|
-----------------------------------------------------------------------------|
-----------------------------------------------------------------------------|

-17^13---18^15---17^13---15^12----17^13---18^15---17^13---15^12--------------|
------15------17------15------14-------15------17------15------14------------|
-----------------------------------------------------------------------------|
-----------------------------------------------------------------------------|
-----------------------------------------------------------------------------|
-----------------------------------------------------------------------------|

-17^13---18^15----20^17----18^15---17^13---15^12----17^13----15^12-----------|
------15------17-------18-------17------15------14-------15-------14---------|
-----------------------------------------------------------------------------|
-----------------------------------------------------------------------------|
-----------------------------------------------------------------------------|
-----------------------------------------------------------------------------|

-17^13---18^15---17^13---15^12----17^13---18^15---17^13---15^12--------------|
------15------17------15------14-------15------17------15------14------------|
-----------------------------------------------------------------------------|
-----------------------------------------------------------------------------|
-----------------------------------------------------------------------------|
-----------------------------------------------------------------------------|

-17^13---18^15----20^17----18^15---17^13---15^12----17^13----15^12-----------|
------15------17-------18-------17------15------14-------15-------14---------|
-----------------------------------------------------------------------------|
-----------------------------------------------------------------------------|
-----------------------------------------------------------------------------|
-----------------------------------------------------------------------------|

                                             t       t       t       t
-----------------------------------------------------------------------------|
-----10^15^10------10^15^10^15^10--------------------------------------------|
---11--------11--11--------------11------------------------------------------|
-12------------12------------------12-----------7^12^15--------7^12^15-------|
-----------------------------------------5^8^12---------5^8^12---------------|
-----------------------------------------------------------------------------|
     t       t       t       t
-----------------------------------------------------------------------------|
-----------------------------------------------------------------------------|
----------------7^10^14---------------drum-fill------------------------------|
-------7^12^15---------7^12^15-----------------------------------------------|
-5^8^12------------------------5---------------------------------------------|
-----------------------------------------------------------------------------|

------------17-21------------------------17-21-----------------------------------|
---17-21-19------19-22-21-19-----17-21-19-----19-22-21-19------------------------|
-18-------------------------21-18------------------------21----------------------|
---------------------------------------------------------------------------------|
---------------------------------------------------------------------------------|
---------------------------------------------------------------------------------|

------------16-20----------------------------16-20---------------------------|
---16-20-18-------18-21-20-18--------16-20-18-----18-21-20-18----------------|
-17--------------------------20----17------------------------20--------------|
-----------------------------------------------------------------------------|
-----------------------------------------------------------------------------|
-----------------------------------------------------------------------------|

-----------15-19---------------------------15-19-----------------------------|
---15-19-17------17-20-19-17-------15-19-17------17-20-19-17-----------------|
-16-------------------------19---16-------------------------19---------------|
-----------------------------------------------------------------------------|
-----------------------------------------------------------------------------|
-----------------------------------------------------------------------------|

|---12-17-12---------15--------18-13----------|
|-14--------14--14-15--15-14--------14--14-17-|
|-------------14----------------------15------| 4x
|---------------------------------------------|
|---------------------------------------------|
|---------------------------------------------|

----12-17-12------------------------------------------------------------------|
--14--------14--14-15-14--------14--------------------------------------------|
--------------14--------15-14-15--15-14-----15-----14-------------------------|
---------------------------------------15-14--15-14--15-14-17-15-14--14-17-15-|
-------------------------------------------------------------------17---------|
------------------------------------------------------------------------------|
                                                    pinch harmonics
-----------------------------------------------------------------------------|
-----------------------------------------------------------------------------|
--------------------------------------------7b---rb7--7b--7b--7b~------------|
-14--------------------------------------------------------------------------|
---17-15-13------------------------------------------------------------------|
-----------18-17-15-13-17-15-13-12-12~---------------------------------------|

---------------------------------------------------------------------12------|
-----------------------------------------------------------------------------|
--14~----10^12^10-9~----9--10---10b-10b-10b-10b--rb10-9----------------------|
--------------------------------------------------------12~---12--12---------|
-----------------------------------------------------------------------------|
-----------------------------------------------------------------------------|

--13-12-10-12-10--10-------13-12-10----------15-13-12---------17-15-13-------|
----------------13--13-12----------13-12-10----------15-13-12---------17-15--|
-----------------------------------------------------------------------------|
-----------------------------------------------------------------------------|
-----------------------------------------------------------------------------|
-----------------------------------------------------------------------------|

-----19-17-15---------20-19-17----------22b----18-17-15-17-15--15------------|
-13----------18-17-15---------20-18-17-----------------------18--18-17-15----|
-----------------------------------------------------------------------------|
-----------------------------------------------------------------------------|
-----------------------------------------------------------------------------|
-----------------------------------------------------------------------------|

-17-12-17--12----------------------------------------------------------------|
---------13----13------------------------------------------------------------|
-------------14----14--------------------------------------------------------|
-----------------14----14~---------------------------------------------------|
---------------------15------------------------------------------------------|
-----------------------------------------------------------------------------|

----7-12-7---7-12-7---7-12-7---7------5-10-5---5-10-5---5-10-5---5-----------|
---9------9-9------9-9------9-9------7------7-7------7-7------7-7------------|
--9--------9--------9--------9------7--------7--------7--------7-------------|
-----------------------------------------------------------------------------|
-----------------------------------------------------------------------------|
-----------------------------------------------------------------------------|

----7-12-7---7-12-7---7-12-7---7------5-10-5---5-10-5------------------------|
---9------9-9------9-9------9-9------7------7-7------7-7~--------------------|
--9--------9--------9--------9------7--------7--------7----------------------|
-----------------------------------------------------------------------------|
-----------------------------------------------------------------------------|
-----------------------------------------------------------------------------|


-----------------------------------------------------------------------------|
-12-8-8--12-8-12-8-8--12-8-12-8--13-8--12-8---11-8---11-8--------------------|
-----9------------9------------9-----9-----9------9------9-------------------|
-----------------------------------------------------------------------------|
-----------------------------------------------------------------------------|
-----------------------------------------------------------------------------|

-----------------------------------------------------------------------------|
-12-8-8--12-8-12-8-8--12-8-12-8--13-8--12-8---11-8---11-8--------------------|
-----9------------9------------9-----9-----9------9------9-------------------|
-----------------------------------------------------------------------------|
-----------------------------------------------------------------------------|
-----------------------------------------------------------------------------|

-----------------------------------------------------------------------------|
-12-8-8--12-8-12-8-8--12-8-12-8--13-8--12-8---11-8---11-8--------------------|
-----9------------9------------9-----9-----9------9------9-------------------|
-----------------------------------------------------------------------------|
-----------------------------------------------------------------------------|
-----------------------------------------------------------------------------|

----------------------14b~---------------------------------------------------|
-12-8-8--12-8-12-8-8---------------------------------------------------------|
-----9------------9----------------------------------------------------------|
-----------------------------------------------------------------------------|
-----------------------------------------------------------------------------|
-----------------------------------------------------------------------------|

                               Marty's solo
-----------------------------------------------------------------------------|
-15b~---15^12--14-14--------------------------------------------------8b-----|
---------------14b14^12--------7b~--5-------------------------7-8-9~----9-8--|
-----------------------14~-----------7-5-----------5b-------/9---------------|
----------------------------------------7-6-5-7~------7~---------------------|
-----------------------------------------------------------------------------|

     w/bar
------------------------8^13^8------8^13--------13^17^13----------12---------|
----------------------10------10--10----------13--------13------13---15b~----|
-7---6-------6~-----10----------10----------14------------14--14-------------|
--10------7-5-----------------------------15----------------15---------------|
-----------------------------------------------------------------------------|
-----------------------------------------------------------------------------|

-12--15b-12-------------------------------------------------------------------|
-----------15-12--------------------------------------------------------------|
----------------15-14--15-14-12--14--12--12^13--12----------------------------|
-------------------------------14--14--14-----14--14-12--12-------------------|
-------------------------------------------------------14--14-13-12--10b--12~-|
------------------------------------------------------------------------------|

-----------------------------------------------------------------------------|
-----------------------------------------------------------------------------|
-----------------------------------------------------------------------------|
------------------------------------------------------/21\-------------------|
--10b--------------10b----12b--10~----10-11-12-14~---------------------------|
-------12~----10^12---12-----------------------------------------------------|

------14^19^14------------19^14-19^14----------------------------------------|
----15--------15---------------------15--------------------------------------|
--16------------16---------------------16------------16----------------------|
------------------16---------------------16--------16------------------------|
--------------------17^14------------------17^14^17--------------------------|
-----------------------------------------------------------------------------|

------16^21^16-------------21^16--21^16--------------------------------------|
----17--------17-----------------------17------------------------------------|
--18------------18-----------------------18------------18--------------------|
------------------18-----------------------18--------18----------------------|
--------------------19^16--------------------19^16^19------/-x-\-------------|
-----------------------------------------------------------------------------|

---------------15^18-19b--18-19~----22b--rb--22b--rb---22b--22b~-------------|
-------------16--------------------------------------------------------------|
-----------17----------------------------------------------------------------|
---------17------------------------------------------------------------------|
---/15^18--------------------------------------------------------------------|
-----------------------------------------------------------------------------|

--/15-12--15-12--------15-----------------------------------------------------|
--------15-----15-12-15--15-----15-12-------------------------12--------------|
---------------------------16-15-----15-14--15-14-12-14-12--12--12^13---------|
----------------------------------------------------------14---------14-12-14-|
------------------------------------------------------------------------------|
------------------------------------------------------------------------------|

-----------------------------------------------------------------------------|
-----------------------------------------------------------------------------|
-12--------------------------------------------12b---rb12--------------------|
---14-12-14-12--12----------------------------------------14-12-14~----------|
--------------14--14-13-14-13-12--12--13--14~--------------------------------|
-----------------------------------------------------------------------------|


 Jason's solo
----------------------------------7-8-9-10--------------------10-------------|
--/10b~----8b---8^9------------10b---------10b--rb10^8-8--8/12--12-8-10-8----|
--------------------9-7~----7-9-----------------------9-------------9----9---|
-----------------------------------------------------------------------------|
-----------------------------------------------------------------------------|
-----------------------------------------------------------------------------|

--------------------------------------------------------8^13^8----------------|
-10-8-8-----------------------------------------------10------10--------------|
-----9-9-7-9-7--7-9-7--7-9--------------------------10----------10------------|
--------------9------9-----/5-7--5^6-5^6----------10--------------10-------10-|
-------------------------------7--------7~----8^12------------------12^8^12---|
------------------------------------------------------------------------------|


-----8^13^8-------------------8-------------------10--12--15-----12-----------|
---10------10---------------10---------------10/12--12--15--15-12--15-12------|
-10----------10-----------10-----7b~-----9^12---------------------------14-12-|
---------------10-------10----------------------------------------------------|
-----------------12^8^12------------------------------------------------------|
------------------------------------------------------------------------------|

------------------------------------17b----rb-b-rb-b-rb17---17-15tr17--------|
-15b~-----15-12------------14b---------------------------------------15tr17--|
---------------14b--rb14-12---14-12------------------------------------------|
-----------------------------------------------------------------------------|
-----------------------------------------------------------------------------|
-----------------------------------------------------------------------------|

 t        t          t         t        t
-15-10-12-15-12-10---17--10-12-17-12-10-------------/15-12--------12---------|
----------------------------------------17-15-12----------15-12-15--15-12-15-|
-----------------------------------------------------------------------------|
-----------------------------------------------------------------------------|
-----------------------------------------------------------------------------|
-----------------------------------------------------------------------------|

-----------------------------------------------------------------------------|
-12------------15-----17------15---------------------------------------------|
---14-12-14-/16--16/18--18-\16--16-\15-14-12--14-12--12-11------11--11-12----|
--------------------------------------------14-----14------12-14--14-----/14-|
-----------------------------------------------------------------------------|
-----------------------------------------------------------------------------|

-----------------------------------------------------------------------------|
-------------------------------------------------------17b--17b--17b--rb17---|
-----------------------------------------------------------------------------|
-12-------16-14-17-16-14--14-----16-14--------14-16-17-----------------------|
---14---14--------------16--16-17-----17-16-17-------------------------------|
-----------------------------------------------------------------------------|

----------------------------------------------------------17------15-----14--|
--17b--rb--17b---rb17---14^15----12b--rb--12b--rb12~-------------------------|
-----------------------------16------------------------/18---18\16--16\14----|
-----------------------------------------------------------------------------|
-----------------------------------------------------------------------------|
-----------------------------------------------------------------------------|

-12~-------------------------------------------------------------------------|
--------14-----12--------------------------15-12--12-------------------------|
-14~----14--14-12tr13----------12--------12-----15--15-14-15-14-12-14-12-----|
------------14--------14~----14--14-12-14-------------------------------14---|
-----------------------------------------------------------------------------|
-----------------------------------------------------------------------------|

-----------------12-15-12----12--------12------------------------------------|
------12-15-12-----------15----15-12-15--15-14-15-14-12-14--12---------------|
-14-15--------15------------------------------------------12--15-14-12-14-15-|
-----------------------------------------------------------------------------|
-----------------------------------------------------------------------------|
-----------------------------------------------------------------------------|

------12-----12-----12-------15-15b---rb15-12---17b--rb17--15----22b~--------|
-12-12--12-11--11-10--10-9---------------------------------------------------|
-----------------------------------------------------------------------------|
-----------------------------------------------------------------------------|
-----------------------------------------------------------------------------|
-----------------------------------------------------------------------------|

-------------12------------------------------------------12------------------|
-----------12---15-12-15b~------17-15------------------12---15-12-15b--15b~--|
---------12--------------------------16-15-14-12-----12----------------------|
--/14~------------------------------------------14~--------------------------|
-----------------------------------------------------------------------------|
-----------------------------------------------------------------------------|

------------------------------12-15b--12-------------------------------------|
-17-15----------------------13----------13-----------------------------------|
-------16-15-14-12-14~----14--------------14-15--14-12--14tr15-12------------|
-------------------------------------------------------------------14~-------|
-----------------------------------------------------------------------------|
-----------------------------------------------------------------------------|


--------12--------15-12--------12--------------------------------------------|
------12--15-12--------15-12-15----15-12--------12------------12-------------|
----12----------------------------------14-12-14--14-12--12-14---------------|
--14---------------------------------------------------14--------------------|
----------------------------------------------------------------14~----------|
-----------------------------------------------------------------------------|

-----7----------11----9b~---------16^12------12^16--16^12------12^16---------|
----7-10-7--10b---10b------------------14--14------------14--14--------------|
-7^8-------------------------------------13----------------13----------------|
-----------------------------------------------------------------------------|
-----------------------------------------------------------------------------|
-----------------------------------------------------------------------------|

--17^13------13^17---18^14------14^18--17b~---------15b--rb15-12---15-12------|
-------15--15-------------15--15--------------------------------15------15-12-|
---------14-----------------16------------------------------------------------|
------------------------------------------------------------------------------|
------------------------------------------------------------------------------|
------------------------------------------------------------------------------|

----15--------------15-12------12--------------------------------------------|
--15--15-12-15-12-15-----12--12--15-12-------12------------------------------|
---------------------------15---------14-------12--12-----12-12~-------------|
----------------------------------------14-12----14-----12-------------------|
-----------------------------------------------------/14---------------------|
-----------------------------------------------------------------------------|

------------------------------------------------------------------------------|
------------------------------------------------------------------------------|
-/12-----12-------------------------------------------------------------------|
----14-12--14--------------------14-12----------------------------------------|
-------------14-12-14-12-14-12-14-----14-12-14-12-14-12-14-12-10-12~---10b----|
--------------------------------------------------------------------------12~-|

-15-12--------12-------------------------------------------------------------|
------15-12-----15-12-------15-12--------12----------------------------------|
-----------14--------14-12-------14-12-----14-12------14-12--------12--------|
--------------------------------------14--------14-12------14-12-----14-12---|
----------------------------------------------------------------14--------14-|
-----------------------------------------------------------------------------|

-----------------------------------------------------------------------------|
-----------------------------------------------------------------------------|
-----------------------------------------------------------------------------|
-----14-12--------12---------------------------------------------------------|
-12-------14-12-----14-12----------------------------------------------------|
---------------15--------15-12--\10b------(10b)~-----------------------------|
comments
print report bad tab
I want to post or [tab]
guest
You may want to rate the tab now too:
select rating
Please do not post tabs as comments. Select "correction" instead!