Oops, an error
Loading. Please wait.

Mabels Fatal Fable Tab

ver2
ver2

Whole song

Interactive

More versions @911Tabs.com
602 views 3 this week
no commentswrite comment
1 2 3 4 5
please rate
Autoscroll
+/-
esc
set tempo
stop
Hey! There's an official Ultimate Guitar app which is ideal
for learning songs when you're away from computer. Get the app
WARNING: You are trying to view
                                    content from Ultimate-Guitar.com
                                    in an unauthorized application,
                                    which is prohibited.

                                    Please use an official Ultimate
                                    Guitar Tabs application for iPhone,
                                    iPad or Android to access legitimate
                                    chords, guitar, bass, and drum tabs
                                    from Ultimate-Guitar.com database.

                                    Type "ultimate guitar tabs" in Apple
                                    App Store's or Android Market's
                                    search to find the application.
                          Jason Becker/Perpetual Burn
                             "Mabel's Fatal Fable"

-----------------------------------------------------------------------------|
-----------------------------------------------------------------------------|
--harmonics-mixed-together-from-the-g-string-using-the-vibrato-bar-----------|
-----------------------------------------------------------------------------|
-----------------------------------------------------------------------------|
-----------------------------------------------------------------------------|

-13-10----------------10-13-10---16-13------------13-16-13------16-19-16-----|
------12------------12----------------15--------15--------15------------18---|
--------13-10--10-13--------------------16-13-16------------16------------19-|
-------------12--------------------------------------------------------------|
-----------------------------------------------------------------------------|
-----------------------------------------------------------------------------|

--------16-----------------------13-12---17b~------20b~----20-19--17^19^17---|
------18-----15b~-------15-13-12---------------------------------------------|
-16-19-----------------------------------------------------------------------|
-----------------------------------------------------------------------------|
-----------------------------------------------------------------------------|
-----------------------------------------------------------------------------|
    1/2
-19b~---------17-------------------------------------------------------------|
----------------18-17---------------18-17------------------------------------|
----------------------17-16-14------------17-16-14---------------------------|
---------------------------------------------------15/17--\14~---------------|
-----------------------------------------------------------------------------|
-----------------------------------------------------------------------------|

-----8-12-----8^12^8--------------8b~-------------10-12-12^10-16^10-13-12-10-|
---10---------------10-8--8~---7---------10-12-13----------------------------|
--9--------------------------------------------------------------------------|
-----------------------------------------------------------------------------|
-----------------------------------------------------------------------------|
-----------------------------------------------------------------------------|

-------------------------------------------------------------------------7-11-|
-13-12-10------------------------------------------------------7-12-7---7-----|
---------12-10-9-10-----10-9-10-9-7---------------------------8------8-8------|
-------------------10-9------------10-9-7-9-7----------------9--------9-------|
---------------------------------------------10-8-7---------------------------|
---------------------------------------------------10-8-7\5-------------------|

-7----14-11------11-/19-14------14-17b~-------19-16-------16-12--12--19-16---|
--7--------12--12---------16--16-------------------17-17-------12---------17-|
---8---------11-------------16-----------------------------------------------|
----9------------------------------------------------------------------------|
-----------------------------------------------------------------------------|
-----------------------------------------------------------------------------|


---------16-12--12----12-9----------------------12-15-12---12-9----12-9--9---|
---17---------12----------11------------------14---------------11------11----|
-16--16---------------------12-9--9-12--/12-15-------------------12----------|
--------------------------------11-------------------------------------------|
-----------------------------------------------------------------------------|
-----------------------------------------------------------------------------|

--------------------16-------------------------------------------------------|
--12b~------14-16-17---16-17-16-14-------------------------------------------|
----------------------------------16-14-13----12^13^12-----------------------|
------------------------------------------------------13----8^10^8----5^6^5--|
------------------------------------------------------------------11---------|
-----------------------------------------------------------------------------|

--------7-4---4---/11-7---7---/16-11--------------------11----13-9----9------|
-----------4-4---------9-9----------12----------------12----------9--9-------|
------------4-----------8-------------13------------13-------------10--------|
----------------------------------------13--------13-------------------------|
-6----------------------------------------14-11-14---------------------------|
---6~------------------------------------------------------------------------|

---/16-13------13--/21-16---------------------16-----------------------------|
---------14--14----------18-----------------18-------------------------------|
-----------13--------------18-------------18---------------------------------|
-----------------------------18-15---15-18-----------------------------------|
----------------------------------16-----------------------------------------|
-----------------------------------------------------------------------------|
  tap the 12th fret (all legato)
------12-4-7-16-12-7-12-7-4-7-7-4-0---12-7-4-7-4-7-4-0-12-7-4-12-7-4-0-12-7--|
-----------------------------------------------------------------------------|
-----------------------------------------------------------------------------|
-----------------------------------------------------------------------------|
-----------------------------------------------------------------------------|
-----------------------------------------------------------------------------|
                                     1/2
-12-7-4-7-7-4-0-12-7-4-7-4-7-4-0----7b-----b---7-6-5-4-----------------------|
-------------------------------------------------------8-7-6-5---------------|
--------------------------------------------------------------8-7-6-5--4~----|
-----------------------------------------------------------------------------|
-----------------------------------------------------------------------------|
-----------------------------------------------------------------------------|

-----------------------------------------------------------------------------|
-----------------------------------------------------------------------------|
----------------------------------------8-9-8--------------------------------|
--------------------------8-------8-9-11-----11-9-8--------------------------|
-------7------------7-9-11-11-9-11-----------------11-9-7-----------7-9-11---|
-7-9-11--11-9-7-9-11-------------------------------------11-9-7-9-11---------|

-----------------------------------------------------------------------------|
---------------------------------9-11-12------------------10-12-14-----------|
-------8-9-11-------------9-11-13------------------9-11-13-------------------|
-8-9-11------------9-11-13------------------9-11-13--------------------------|
-----------------------------------------------------------------------------|
-----------------------------------------------------------------------------|

----------------------------11-12-----------12-14------------14-16-----------|
------10-12-14------11-12-14--------12-14-16--------14-16-18-----------------|
-13-15-----------------------------------------------------------------------|
-----------------------------------------------------------------------------|
-----------------------------------------------------------------------------|
-----------------------------------------------------------------------------|

----------16-18--------19-14----14---14-16-14--------16-14---------19-16-----|
--16-17-19------------------16----16---------17-16-14-----17-16-14------16---|
------------------------------16---------------------------------------------|
-----------------------------------------------------------------------------|
-----------------------------------------------------------------------------|
-----------------------------------------------------------------------------|


--------------------19-14--19-14--14-16-14--------14-16-14---------19-16-----|
-19-18-16----------------16-----16--------17-16-14--------17-16-14------19---|
---------18-16-15------------------------------------------------------------|
-----------------18----------------------------------------------------------|
-----------------------------------------------------------------------------|
-----------------------------------------------------------------------------|
                  T                      T
------------------20-13-13-12-10--------17-13-12-10---------13-12-10---------|
-17-16-14-----------------------13-12--------------13-12-10---------13-12----|
---------16------------------------------------------------------------------|
-----------------------------------------------------------------------------|
-----------------------------------------------------------------------------|
-----------------------------------------------------------------------------|
   T                   T                                             T
--17-12-10-8----------15-13-12-10------------12-10---------10----------------|
------------12-10----------------13-12-10---------12-10------12-10-----------|
--------------------------------------------------------------------14-10-9--|
-----------------------------------------------------------------------------|
-----------------------------------------------------------------------------|
-----------------------------------------------------------------------------|
  T        T      T      T     T     T
-----------------------------------------------------------------------------|
-----------------------------------------------------------------------------|
-----------14-9-7--------14-10-14-10-14-10-9-7-10-10-10-9-7---10-9-7---------|
-14-10-9-7--------14-9-7--------------------------------------------10-------|
-----------------------------------------------------------------------------|
-----------------------------------------------------------------------------|
 T                                                         T     T    T
-----------------------------------------------------------------------------|
-----------------------------------------------------------------------------|
-12-10-9-7-------------------------------------------------------------------|
----------10-9-7----7-5-3----------------------------------------------------|
-------------------------7-5-3--8-7-8-7-5-----7-5-7-5------12-8-12-7-12-5----|
-----------------------------------------8-7-5-------8-7-5-------------------|

-----------------------------------------------------------------------------|
-----------------------------------------------------------------------------|
-----------------------------------------------------------------------------|
-----------------------------------------------------------------------------|
-----------------------------------------------------------------------------|
---8-7-5-----------------0-0-0-0-0-0-0-0-0-0-0-0-0-0-0-0-0-0-0-0-0-0-0-0-0-0-|

-----------------------------------------------------------------------------|
-----------------------------------------------------------------------------|
-----------------------------------------------------------------------------|
-----------------------------------------------------------------------------|
-----------------------------------------------------------------------------|
-0-0-0-0-0-0-0-0-0-0-0-0-0-0-0-0-0-0-0-0-0-0-0-0-0-0-0-0-0-0-0-0-0-0-0-0-0-0-|

-----------------------------------------------------------------------------|
-------------------------------------------------------------10-12-13--------|
---------------------9-10-9--------------------------9-10-12-----------------|
-------------9-10-12--------12-10-9----------9-10-12-------------------------|
----12-11-12------------------------12-11-12---------------------------------|
-----------------------------------------------------------------------------|

-----------------------------------------------------------------------------|
----------------8-10-8-------------------------------------------------------|
---------7-9-10--------10-9-7---------7-9-10---------------------------------|
-10-9-10----------------------10-9-10--------7-9-10-6-7-9--------------------|
-----------------------------------------------------------------------------|
-----------------------------------------------------------------------------|

-----------------------------------------------------------------------------|
-----------------------------------------------------------------------------|
--------------------------5-----7-----9-----10-------------------------------|
-6-----7-----9-----10-------7-6---7-6---7-6----7-6---------------------------|
---8-7---8-7---8-7----8-7----------------------------------------------------|
-----------------------------------------------------------------------------|

-----------------------------------------------------------------------------|
-----------------------------------------------------------------------------|
-10-9-7-10-9-7----9-7-----------------------9-8-9----------------------------|
---------------10-----10-9-10-12-10-9-6-7-9-------6-7-9----------------------|
-----------------------------------------------------------------------------|
-----------------------------------------------------------------------------|

-----------------------------------------------------------------------------|
-------------------------------------------------------------10-12-13--------|
---------------------9-10-9--------------------------9-10-12-----------------|
-------------9-10-12--------12-10-9----------9-10-12-------------------------|
----12-11-12------------------------12-11-12---------------------------------|
-----------------------------------------------------------------------------|

-----------------------------------------------------------------------------|
----------------8-10-8-------------------------------------------------------|
---------7-9-10--------10-9-7---------7-9-10---------------------------------|
-10-9-10----------------------10-9-10--------7-9-10-6-7-9--------------------|
-----------------------------------------------------------------------------|
-----------------------------------------------------------------------------|

-----------------------------------------------------------------------------|
-----------------------------------------------------------------------------|
--------------------------5-----7-----9-----10-------------------------------|
-6-----7-----9-----10-------7-6---7-6---7-6----7-6---------------------------|
---8-7---8-7---8-7----8-7----------------------------------------------------|
-----------------------------------------------------------------------------|

-----------------------------------------------------------------------------|
-----------------------------------------------------------------------------|
-10-9-7-10-9-7----9-7-----------------------9-8-9----------------------------|
---------------10-----10-9-10-12-10-9-6-7-9-------6-7-9----------------------|
-----------------------------------------------------------------------------|
-----------------------------------------------------------------------------|

-----------------------------------------------------------------------------|
-----------------------------------------------------------------------------|
------------------9-10-9------------------------7-9-7------------------------|
----------9-10-12--------12-10-9---------7-9-10-------10-9-7-----------------|
-12-11-12------------------------10-9-10-------------------------------------|
-----------------------------------------------------------------------------|

-----------------------------------------------------------------------------|
-----------------------------------------------------------------------------|
-------------5-7-5---------------------------4-5-6-5-6-7-6-7-8---------------|
-------6-7-9-------9-7-6-7-9-10-6-7-9-7-9-10---------------------------------|
-8-7-8-----------------------------------------------------------------------|
-----------------------------------------------------------------------------|

-----7-12---16-12----------12-13-12-10---------------------------------------|
---9------9-------12----12-------------13-12-10------------------------------|
-9-------------------13-------------------------12-10-9----------------------|
--------------------------------------------------------12-10-9--------------|
-----------------------------------------------------------------------------|
-----------------------------------------------------------------------------|

-----------------------------------------------------------------------------|
-----------------------------------------------------------------------------|
-------9-----13-9--------9--10-9-7-10-9-7-9-7--------------------------------|
---6-9---9-6------9----9----------------------10-9-10-9----------------------|
-7------------------11-------------------------------------------------------|
-----------------------------------------------------------------------------|

-----------------------------------------------------------------------------|
-----------------------------------------------------------------------------|
------------------9-10-9------------------------7-9-7------------------------|
----------9-10-12--------12-10-9---------7-9-10-------10-9-7-----------------|
-12-11-12------------------------10-9-10-------------------------------------|
-----------------------------------------------------------------------------|

---------------------------------------10-15-10------------------------------|
------------------------------------12----------12---------------------------|
-------------5-7-5---------------12----------------12------------------------|
-------6-7-9-------9-7-6----9-12----------------------12-9-------------------|
-8-7-8-------------------10--------------------------------------------------|
-----------------------------------------------------------------------------|

-15-11----------------------------11-15-10--------------------------10-------|
-------13----------------------13----------12--------------------12----------|
----------12----------------12----------------12--------------12-------------|
-------------13----------13----------------------12-9----9-12----------------|
----------------15-10-15------------------------------10---------------------|
-----------------------------------------------------------------------------|


-15-11----------------------------11----10-15----11-15----10-15----11-15-----|
-------13----------------------13----12-------13-------12-------13-----------|
----------12----------------12-----------------------------------------------|
-------------13----------13--------------------------------------------------|
----------------15-10-15-----------------------------------------------------|
-----------------------------------------------------------------------------|
                                     1/2
----10-15----11-15----10-15----11-15b~---13-10--10-------------------10-13-16-|
-12-------13-------12-------13----------------12-------------------12---------|
-------------------------------------------------------13-10--10-13-----------|
------------------------------------------------------------12----------------|
------------------------------------------------------------------------------|
------------------------------------------------------------------------------|

-13-10-----------------------------------------------------------------------|
------12---------------------------------------------------------------------|
--------13-10----------------------------------------------------------------|
-------------12\-------------------------------------------------------------|
-----------------------------------------------------------------------------|
-----------------------------------------------------------------------------|

-----------------------------------------------------------------------------|
-------------------------------------------------------------10-12-13--------|
---------------------9-10-9--------------------------9-10-12-----------------|
-------------9-10-12--------12-10-9----------9-10-12-------------------------|
----12-11-12------------------------12-11-12---------------------------------|
-----------------------------------------------------------------------------|

-----------------------------------------------------------------------------|
----------------8-10-8-------------------------------------------------------|
---------7-9-10--------10-9-7---------7-9-10---------------------------------|
-10-9-10----------------------10-9-10--------7-9-10-6-7-9--------------------|
-----------------------------------------------------------------------------|
-----------------------------------------------------------------------------|

-----------------------------------------------------------------------------|
-----------------------------------------------------------------------------|
--------------------------5-----7-----9-----10-------------------------------|
-6-----7-----9-----10-------7-6---7-6---7-6----7-6---------------------------|
---8-7---8-7---8-7----8-7----------------------------------------------------|
-----------------------------------------------------------------------------|

-----------------------------------------------------------------------------|
-----------------------------------------------------------------------------|
-10-9-7-10-9-7----9-7-----------------------9-8-9----------------------------|
---------------10-----10-9-10-12-10-9-6-7-9-------6-7-9----------------------|
-----------------------------------------------------------------------------|
-----------------------------------------------------------------------------|

-----------------------------------------------------------------------------|
-------------------------------------------------------------10-12-13--------|
---------------------9-10-9--------------------------9-10-12-----------------|
-------------9-10-12--------12-10-9----------9-10-12-------------------------|
----12-11-12------------------------12-11-12---------------------------------|
-----------------------------------------------------------------------------|

-----------------------------------------------------------------------------|
----------------8-10-8-------------------------------------------------------|
---------7-9-10--------10-9-7---------7-9-10---------------------------------|
-10-9-10----------------------10-9-10--------7-9-10-6-7-9--------------------|
-----------------------------------------------------------------------------|
-----------------------------------------------------------------------------|

-----------------------------------------------------------------------------|
-----------------------------------------------------------------------------|
--------------------------5-----7-----9-----10-------------------------------|
-6-----7-----9-----10-------7-6---7-6---7-6----7-6---------------------------|
---8-7---8-7---8-7----8-7----------------------------------------------------|
-----------------------------------------------------------------------------|

-----------------------------------------------------------------------------|
-----------------------------------------------------------------------------|
-10-9-7-10-9-7----9-7-----------------------9-8-9----------------------------|
---------------10-----10-9-10-12-10-9-6-7-9-------6-7-9----------------------|
-----------------------------------------------------------------------------|
-----------------------------------------------------------------------------|

-----------------------------------------------------------------------------|
-----------------------------------------------------------------------------|
------------------9-10-9------------------------7-9-7------------------------|
----------9-10-12--------12-10-9---------7-9-10-------10-9-7-----------------|
-12-11-12------------------------10-9-10-------------------------------------|
-----------------------------------------------------------------------------|

-----------------------------------------------------------------------------|
-----------------------------------------------------------------------------|
-------------5-7-5---------------------------4-5-6-5-6-7-6-7-8---------------|
-------6-7-9-------9-7-6-7-9-10-6-7-9-7-9-10---------------------------------|
-8-7-8-----------------------------------------------------------------------|
-----------------------------------------------------------------------------|

-----7-12---16-12----------12-13-12-10---------------------------------------|
---9------9-------12----12-------------13-12-10------------------------------|
-9-------------------13-------------------------12-10-9----------------------|
--------------------------------------------------------12-10-9--------------|
-----------------------------------------------------------------------------|
-----------------------------------------------------------------------------|

-----------------------------------------------------------------------------|
-----------------------------------------------------------------------------|
-------9-----13-9--------9--10-9-7-10-9-7-9-7--------------------------------|
---6-9---9-6------9----9----------------------10-9-10-9----------------------|
-7------------------11-------------------------------------------------------|
-----------------------------------------------------------------------------|

-----------------------------------------------------------------------------|
-----------------------------------------------------------------------------|
------------------9-10-9------------------------7-9-7------------------------|
----------9-10-12--------12-10-9---------7-9-10-------10-9-7-----------------|
-12-11-12------------------------10-9-10-------------------------------------|
-----------------------------------------------------------------------------|

---------------------------------------10-15-10------------------------------|
------------------------------------12----------12---------------------------|
-------------5-7-5---------------12----------------12------------------------|
-------6-7-9-------9-7-6----9-12----------------------12-9-------------------|
-8-7-8-------------------10--------------------------------------------------|
-----------------------------------------------------------------------------|

-15-11----------------------------11-15-10--------------------------10-------|
-------13----------------------13----------12--------------------12----------|
----------12----------------12----------------12--------------12-------------|
-------------13----------13----------------------12-9----9-12----------------|
----------------15-10-15------------------------------10---------------------|
-----------------------------------------------------------------------------|


-15-11----------------------------11----10-15----11-15----10-15----11-15-----|
-------13----------------------13----12-------13-------12-------13-----------|
----------12----------------12-----------------------------------------------|
-------------13----------13--------------------------------------------------|
----------------15-10-15-----------------------------------------------------|
-----------------------------------------------------------------------------|

----10-15----11-15----10-15----11-15-----------------------------------------|
-12-------13-------12-------13-----------------------------------------------|
----------------------------------------14b~---------------------------------|
-----------------------------------------------------------------------------|
-----------------------------------------------------------------------------|
-----------------------------------------------------------------------------|

-20-------------15------------14------------12----------10-------------------|
---18-17\15-17----13-12\10-12---12-10\8-10----10-8\7-8----8-6\5-6------------|
-----------------------------------------------------------------------------|
-----------------------------------------------------------------------------|
-----------------------------------------------------------------------------|
-----------------------------------------------------------------------------|

         harmonic  dive w/bar  w/bar  dive     w/bar        w/bar  dive
--13b------------------------------------------------------------------------|
-----------------------------------------------------------------------------|
-----------5------\----------/17-17--14-\----/12-9-9-9----/14-11-11\---------|
-----------------------------------------------------------------------------|
-----------------------------------------------------------------------------|
-----------------------------------------------------------------------------|
     w/bar        w/bar  dive
---------------------------------12-10-8-------------------------------------|
----------------------12-----\----------12-8-------8-7-5---------------------|
--/11-7-7-7-----/12-9-----------------------12-9--------7-5-4----------------|
-------------------------------------------------------------7-5-4-----------|
------------------------------------------------------------------7----------|
---------------------------------------------------------------------5-3-----|

                             harmonic dive w/bar harm. raise bar
--------------------------------------------------------------------10-------|
-----------------------------------------------------------------8-8--8-7-8--|
--------------7-9--7^9^7^5^7~-------5------\-----\6--------------------------|
--------5-7-5----------------------------------------------------------------|
-----------------------------------------------------------------------------|
-3^2-3-----------------------------------------------------------------------|

---8----------10------------12-------------17---------------15---------------|
-10------10-12--12-----12-13--13-12---15-17--17-15-----13-15--15-13----------|
-----------------------------------------------------------------------------|
-----------------------------------------------------------------------------|
-----------------------------------------------------------------------------|
-----------------------------------------------------------------------------|

----------15-17-19--17b~----15^19^15---------------------8-10-11-8--8-10-11--|
-15-17-19---------------------------17-15--17b~--------11---------11---------|
-----------------------------------------------------------------------------|
-----------------------------------------------------------------------------|
-----------------------------------------------------------------------------|
-----------------------------------------------------------------------------|

-10-8\7---14-10----12-8----10-7----12b~-----12-14-15---14^10-----------------|
---------------10-------8------10----------------------------15~-------------|
-----------------------------------------------------------------------------|
-----------------------------------------------------------------------------|
-----------------------------------------------------------------------------|
-----------------------------------------------------------------------------|

---------------------------------------------------8-10-12-10-8--------------|
--8^10^8^7-8~-----8^7^5^7-7~----7^5^7^5--7-7-8~----------------12-10-8--8-10-|
---------------------------------------5------------------------------11-----|
-----------------------------------------------------------------------------|
-----------------------------------------------------------------------------|
-----------------------------------------------------------------------------|

---8-10----12-10-8----------8-12-10-8-------------8-10----12-10--------------|
-12---------------12-10-8------------12-10-8-10-12-------------13-12-10------|
-----------------------------------------------------------------------12-11-|
-----------------------------------------------------------------------------|
-----------------------------------------------------------------------------|
-----------------------------------------------------------------------------|

---12-10------------------------12-14-------------15-17-19--------17-19-20---|
--------13-12-10--------12-13-15----------15-17-19-----------17-19-----------|
-9--------------12-11-9------------------------------------------------------|
-----------------------------------------------------------------------------|
-----------------------------------------------------------------------------|
-----------------------------------------------------------------------------|

--(20b)---20-----------------------------------------------------------------|
-------------20---20-19^20^19------------------------------------------------|
------------------------------19--14-12--12-11--12~--------11^12^11^9-11-11~-|
-----------------------------------------------------------------------------|
-----------------------------------------------------------------------------|
-----------------------------------------------------------------------------|

-----------------------------------------------------------------------------|
-----------------------------------------------------------------------------|
---9^11^9--------------------------------------------------------------------|
----------10-10---9-10---7/9~-----10-10------9-9-----7-7---------------------|
---------------------------------------9---------7-------5-/7-7~-------------|
-----------------------------------------------------------------------------|

-----------------------------------------------------------------------------|
-----------------------------------------------------------------------------|
-----------------------------------9-11--------------------------------------|
--------12-10-9-------------9-10-12---------14-12-10----------14-12-10-------|
---------------12-10-9-10-12------------------------14-12-10----------14-12--|
-----------------------------------------------------------------------------|

------------------------------------------------------------------------------|
------------------------------------------------------------------------------|
-----------------11-12----12-11-9----------------------------------9-11-12/14-|
---------10-12-14----------------12-10-9--------10-9--------9-10-12-----------|
-10-12-14-------------------------------12-10-9-----12-10-12------------------|
------------------------------------------------------------------------------|

-----------------------------------------------------------------------------|
-----------------------------------------------------------------------------|
---14-12-11------------------------------------------11-12--12-11-9----------|
-----------14-12-10-12-10-12-10--------------10-12-14--------------12-10-9---|
-------------------------------14-12-10-12-14-----------------------------12-|
-----------------------------------------------------------------------------|

----------------------------------------------------------------10-----------|
----------------------------------------------------------10-12---13-12-10---|
-------------------------------9-11-12-11-9--------9-11-12----------------12-|
-10-9-------------9-10-12-10-12------------12-10-12--------------------------|
-----12-10-9-10-12-----------------------------------------------------------|
-----------------------------------------------------------------------------|


--------------10-12-14/15----17-15-14----------------------------------------|
---12-10-12-13-----------------------17-15-13--------------12-13----15---13--|
-11------------------------------------------14-12-11-12-14------------------|
-----------------------------------------------------------------------------|
-----------------------------------------------------------------------------|
-----------------------------------------------------------------------------|

--12-10----------------------------------------------------------------------|
-------13-12-10--------------------------------------------------------------|
---------------12-11-9--------9-11-12----14---12------12-11-9----------------|
----------------------12-10-12-------------------------------12-10-9---------|
--------------------------------------------------------------------12-10-9--|
-----------------------------------------------------------------------------|
                                     dive w/bar    w/bar      w/bar
-----------------------------------------------------------------------------|
-----------------------------------------------------------------------------|
--------------------------4-5-7-4-5-4-0\---------/11--11-7---/9-9-7----------|
------9-10-12---10---9-------------------------------------------------------|
-10-12-----------------------------------------------------------------------|
-----------------------------------------------------------------------------|

-----------------------------------------------------------------------------|
----------------------------------------------------------10-12--------------|
--------------------------9-11--------------------9-11-12----------9---11^12-|
--10-9---9---------9-10-12-------12----10-12-10-12---------------------------|
-------10-10-----------------------------------------------------------------|
-------------10\-------------------------------------------------------------|

-------------------------------10-12---------10-12-14/15---14-12-10-12-10----|
--------10-12-13----10----12---------10-12-13----------------------------13--|
-9-11-12---------------------------------------------------------------------|
-----------------------------------------------------------------------------|
-----------------------------------------------------------------------------|
-----------------------------------------------------------------------------|

-----------------------------------------------------------------------------|
-13-12-10-12-10--------------------------------------------------------------|
---------------12---12-11-9-11-9---------------------------------------------|
--------------------------------12---12-10-9-10-9----------------------------|
-------------------------------------------------12--12-10-9-10-9------------|
-----------------------------------------------------------------12----------|

-----------------------------------------------------------------------------|
-----------------------------------------------------------------------------|
-11-9-11-9--------------12-11-12-11--11--------------------------------------|
----------12-10-12-10--------------14--14-12-14-12-14-10--12-10-9------------|
-----------------------------------------------------------------12-10-10-9--|
-----------------------------------------------------------------------------|

-----------------------------------------------------------------------------|
-----------------------------------------------------------------------------|
---------------------------------12-9-11-9---9-------------------------------|
----10-9-10-9-7--/12-10-9-----------------12--12-10-12-10-9---10-7-9-7-------|
-7-----------------------12-10-9---------------------------------------------|
-----------------------------------------------------------------------------|
                              dive w/bar   dive w/bar
-----------------------------------------------------------------------------|
-----------------------------------------------------------------------------|
-----------------------------------------------------------------------------|
-7-4-5-4-5-4-----------------------------------------------------------------|
------------7-3-5-3----------------------------------------------------------|
--------------------7-3-5-3---0\-----------0\--------------------------------|

guitar 1

-----------------------------------------------------------------------------|
-----------------------------------------------------------------------------|
----/6-------6/10--\8---------------6--6--6---/10--\8~-----------------------|
---------------------------------9-------------------------------------------|
-----------------------------------------------------------------------------|
-----------------------------------------------------------------------------|

guitar 2

-----------------------------------------------------------------------------|
----6-------6/11--\9----------------6---6---6--/11--9~-----------------------|
--------------------------------8--------------------------------------------|
-----------------------------------------------------------------------------|
-----------------------------------------------------------------------------|
-----------------------------------------------------------------------------|

guitar 1

-----------------------------------------------------------------------------|
-----------------------------------------------------------------------------|
---/4----4/6--\8~---------------4--4--4/8--\6~-------------------------------|
-----------------------------7-----------------------------------------------|
-----------------------------------------------------------------------------|
-----------------------------------------------------------------------------|

guitar 2

-----------------------------------------------------------------------------|
-----------------------------------------------------------------------------|
---/8---8/13--\11~--------------8-8--8/13--\11~------------------------------|
----------------------------11-----------------------------------------------|
-----------------------------------------------------------------------------|
-----------------------------------------------------------------------------|

guitar 1

-----------------------------------------------------------------------------|
-----------------------------------------------------------------------------|
----/6-------6/10--\8---------------6--6--6---/10--\8~-------------8---------|
---------------------------------9-------------------------------------------|
-----------------------------------------------------------------------------|
-----------------------------------------------------------------------------|

guitar 2

-----------------------------------------------------------------------------|
----6-------6/11--\9----------------6---6---6--/11--9~-------------9---------|
--------------------------------8--------------------------------------------|
-----------------------------------------------------------------------------|
-----------------------------------------------------------------------------|
-----------------------------------------------------------------------------|

-----------------------------------------------------------------------------|
-----------------------------------------------------------------------------|
--------------------8-10-12-10-8-------------8-------------------------------|
---------5---7^5-------------------------------------------------------------|
---5-6-8------------------------12-10-8-10-12--------------------------------|
-5---------------------------------------------------------------------------|
               3x
-----------------------------------------------------------------------------|
-----------------------------------------------------------------------------|
-----8-----------------------------------------------------------------------|
----7-7------9-------7--------9---------------9-----7-----5------------------|
---6---6----8-8-----6-6------8-8-------------8-----6-----4-------------------|
-----------7---7---5---5----7---7-----------7-----5-----3--------------------|

-----------------------------------------------------------------------------|
-----------------------------------------------------------------------------|
----------------10-12-14-------------------12-14-16-----------------14-16-18-|
---------9-11-13-------------------11-13-15-----------------13-15-17---------|
-8-10-12-------------------10-12-14-----------------12-14-16-----------------|
-----------------------------------------------------------------------------|

-----------------------------------------------------------------------------|
-----------------------------------------------------------------------------|
------------------16-18-20--/22~---------------------------------------------|
----------15-17-19-----------------------------------------------------------|
--14-16-18-------------------------------------------------------------------|
-----------------------------------------------------------------------------|
 The rest is backwards stuff... here's the riff if someone wants to learn it
-----------------------------------------------------------------------------|
-----------------------------------------------------------------------------|
---------------6-8-----------------------------------------------------------|
-8--7-5-7-5-7-9--------------------------------------------------------------|
--6--------------------------------------------------------------------------|
-----------------------------------------------------------------------------|

--/22~-----------------------------------------------------------------------|
-----------------------------------------------------------------------------|
-----------------------------------------------------------------------------|
-----------------------------------------------------------------------------|
-----------------------------------------------------------------------------|
-----------------------------------------------------------------------------|
comments
We did not receive enough feedback on this tab! Please rate:
print report bad tab
1 2 3 4 5
I want to post or [tab]
guest
You may want to rate the tab now too:
select rating
Please do not post tabs as comments. Select "correction" instead!