Oops, an error
Loading. Please wait.

Opus Pocus Tab

ver1
ver1

Whole song

Interactive

More versions @911Tabs.com
9,450 views 24 this week
3 commentsread comments
1 2 3 4 5
excellent!
x 5
Autoscroll
+/-
esc
set tempo
stop
Contributor
Hey! There's an official Ultimate Guitar app which is ideal
for learning songs when you're away from computer. Get the app
WARNING: You are trying to view
                                    content from Ultimate-Guitar.com
                                    in an unauthorized application,
                                    which is prohibited.

                                    Please use an official Ultimate
                                    Guitar Tabs application for iPhone,
                                    iPad or Android to access legitimate
                                    chords, guitar, bass, and drum tabs
                                    from Ultimate-Guitar.com database.

                                    Type "ultimate guitar tabs" in Apple
                                    App Store's or Android Market's
                                    search to find the application.
                         Jason Becker/Perpetual Burn
                                 "Opus Pocus"


-------------14--10~----17~---15^17^15^14--15~-------------------------------|
-----------------------------------------------------------------------------|
---------11------------------------------------------------------------------|
-----------------------------------------------------------------------------|
-----------------------------------------------------------------------------|
-----10----------------------------------------------------------------------|


----------12~--9~--15~---14^15^14^12--14~------------------------------------|
-----------------------------------------------------------------------------|
-------9---------------------------------------------------------------------|
-----------------------------------------------------------------------------|
-----------------------------------------------------------------------------|
----9------------------------------------------------------------------------|

--------14~--17~--14~--19~---17^19^17^14-15~---------------------------------|
-----------------------------------------------------------------------------|
---11------------------------------------------------------------------------|
-----------------------------------------------------------------------------|
-----------------------------------------------------------------------------|
-----------------------------------------------------------------------------|

-----12~-15~-12~--17~----15^17^15--12--14~-----------------------------------|
-----------------------------------------------------------------------------|
--9--------------------------------------------------------------------------|
-----------------------------------------------------------------------------|
-----------------------------------------------------------------------------|
-----------------------------------------------------------------------------|

---15-17-19--17b~---17b--rb----21--21~---19-21-22-22b~-----------------------|
----------------------------19-----------------------------------------------|
-----------------------------------------------------------------------------|
-----------------------------------------------------------------------------|
-----------------------------------------------------------------------------|
-----------------------------------------------------------------------------|


---21-19----------19---------------------------------------------------------|
---------17-15-17----17-15---------------------------------------------------|
---------------------------16-14~--------------------------------------------|
-----------------------------------------------------------------------------|
-----------------------------------------------------------------------------|
-----------------------------------------------------------------------------|

--------17-17-14------------------17-17-14-----------------------------------|
-----------------17-17b~-------------------17--15b~--------------------------|
--14-16-------------------16-14-16-------------------------------------------|
-----------------------------------------------------------------------------|
-----------------------------------------------------------------------------|
-----------------------------------------------------------------------------|
                        1/2
--------17-17-17-14----------------------------------------------------------|
--------------------17-14b~-----------------15-15----------------------------|
--14-16-------------------------------------------16-14-16~------------------|
-----------------------------------14-12-14----------------------------------|
-----------------------------------------------------------------------------|
-----------------------------------------------------------------------------|

--------------------14-15-14-------------------------------------------------|
----14-15-15b~--------------15---------15~-----------------------------------|
--16--------------------------14-16-16----------16^19^16\14~---16------------|
-----------------------------------------------------------------------------|
-----------------------------------------------------------------------------|
-----------------------------------------------------------------------------|

-------17-17-14------------------17-17---------------------------------------|
----------------17-17b~----------------15\14-14~-----12^14^12\10--\8--\7~----|
-14-16---------------------14-16---------------------------------------------|
-----------------------------------------------------------------------------|
-----------------------------------------------------------------------------|
-----------------------------------------------------------------------------|


-----------------------------------------------------------------------------|
-----------------------------------------------------------------------------|
--12b-----12^11--\9~-----9--7---7^9^7-\6~------------------------------------|
-----------------------------------------------------------------------------|
-----------------------------------------------------------------------------|
-----------------------------------------------------------------------------|
                 w/bar
-----------------------------------------------------------------------------|
-----------------------------------------------------------------------------|
---7^6-----------------------------------------------------------------------|
--------7---7--7-------------------------------------------------------------|
----------9-------7---\------------------------------------------------------|
-----------------------------------------------------------------------------|

-------------14--10~----17~---15^17^15^14--15~-------------------------------|
-----------------------------------------------------------------------------|
---------11------------------------------------------------------------------|
-----------------------------------------------------------------------------|
-----------------------------------------------------------------------------|
-----10----------------------------------------------------------------------|


----------12~--9~--15~---14^15^14^12--14~------------------------------------|
-----------------------------------------------------------------------------|
-------9---------------------------------------------------------------------|
-----------------------------------------------------------------------------|
-----------------------------------------------------------------------------|
----9------------------------------------------------------------------------|

--------14~--17~--14~--19~---17^19^17^14-15~---------------------------------|
-----------------------------------------------------------------------------|
---11------------------------------------------------------------------------|
-----------------------------------------------------------------------------|
-----------------------------------------------------------------------------|
-----------------------------------------------------------------------------|

                                                tap
-----12~-15~-12~--15b~---15^17^15--12--14------^22~--------------------------|
-----------------------------------------------------------------------------|
--9--------------------------------------------------------------------------|
-----------------------------------------------------------------------------|
-----------------------------------------------------------------------------|
-----------------------------------------------------------------------------|

-----------------------------------------------------------------------------|
-----------------------------------------------------------------------------|
-----------------------------------------------------------------------------|
--7-7-7-7-7-7-7-7-7-7-7-7-7-7------------------------------------------------|
--5-5-5-5-5-5-5-5-5-5-5-5-5-5------------------------------------------------|
-----------------------------------------------------------------------------|

  2x
-----------------------------------------------------------------------------|
-----------------------------------------------------------------------------|
--3---------------8----------------------8----------10-----------------------|
--3------3--------8--------8-----6-------8----------10-----------------------|
--1------3--------6--------8-----6-------6----------8------------------------|
---------1-----------------6-----4-------------------------------------------|

----------7-6---------------6-----------7-----6------------------------------|
------4-5-------8-5-7---6-----8-----8-9-----6--------------------------------|
-5------------7-------8---7-----8-5-------7-----5-----8---6-5---------8-6-5--|
---5-6--------------------------------------------7-----6-----3-2-3-6--------|
----------------------------------------------------7------------------------|
-----------------------------------------------------------------------------|

--------------------------4-2-----8-9-----7----------------------------------|
-----4----------------------------------------10-8--7--------5-4-------------|
---------6-5------------------3-------8-9---7---------5----4-----3-------8-6-|
-3-2---6------3-2-4-----3------------------------------6-5---------4-3--7----|
--------------------4-3------------------------------------------------------|
-----------------------------------------------------------------------------|

-----------------------------------------------------------------------------|
-----------------------------------------------------------------------------|
---8-5--------------------------------6-8--8-9-11-10-8-7-9-6-\5--7-4-----8-9-|
-8-------------------------8-9-----------8---------------------------8-6-----|
-------8-5----------7-4--6-----7-9-10----------------------------------------|
------------------6----------------------------------------------------------|

--------------------9-10--/17-14-12---14-------------------------------------|
----------------7-8----------------14----------------------------------------|
-8------------4--------------------------------------------------------------|
---9-8-6-8-9-----------------------------------------------------------------|
-----------------------------------------------------------------------------|
-----------------------------------------------------------------------------|

-----------------------------------------------------------------------------|
-9-7-7-7-9-7-7-7-9-7-7-7-9-7-7-7-9-7-7-7-9-7-7-7-9-7-7-7-9-7-7-7-------------|
-----------------------------------------------------------------------------|
-----------------------------------------------------------------------------|
-----------------------------------------------------------------------------|
-----------------------------------------------------------------------------|
            1/2                                      1/2
---14-16--16b~-------------17b---rb--16-16~---------16b--rb-14-14~-----------|
-14-----------------14-14---------------------14-14--------------------------|
-----------------------------------------------------------------------------|
-----------------------------------------------------------------------------|
-----------------------------------------------------------------------------|
-----------------------------------------------------------------------------|
                                                        1/2
--------21-21-21^17---19-19-19^16---17-17-17-17^14----16b--rb-14-------------|
--14-14----------------------------------------------------------------------|
-----------------------------------------------------------------------------|
-----------------------------------------------------------------------------|
-----------------------------------------------------------------------------|
-----------------------------------------------------------------------------|

                                                1/2
-13-15-16~------------16b---rb-15-15~----------15b--rb--13-13~---------20-20-|
---------------13-13--------------------13-13--------------------13-13-------|
-----------------------------------------------------------------------------|
-----------------------------------------------------------------------------|
-----------------------------------------------------------------------------|
-----------------------------------------------------------------------------|

-20^16---18-18-18^15---16-16-16-16^13--13-13b------11--8^11^8----------------|
-------------------------------------------------------------11-9---11/13~---|
-----------------------------------------------------------------------------|
-----------------------------------------------------------------------------|
-----------------------------------------------------------------------------|
-----------------------------------------------------------------------------|
                                                     w/bar
--11--8^11^8---------------16---13^16^13-------------------------------------|
------------11-9-11---------------------16-13--------------------------------|
--------------------8~------------------------15-13--13^15--13^15^13---13----|
--------------------------------------------------------------------15---15--|
-----------------------------------------------------------------------------|
-----------------------------------------------------------------------------|

-----------------------------------------------------------------------------|
-----------------------------------------------------------------------------|
-----------------------------------------------------------------------------|
-13-15--^13-\10-13-10-----8-10-^8^10^8---10-8--------------------------------|
----------------------13--------------11------11~----------------------------|
-----------------------------------------------------------------------------|

-----------------------------------------------------------------------------|
-9-7-7-7-9-7-7-7-9-7-7-7-9-7-7-7-9-7-7-7-9-7-7-7-9-7-7-7-9-7-7-7-------------|
-----------------------------------------------------------------------------|
-----------------------------------------------------------------------------|
-----------------------------------------------------------------------------|
-----------------------------------------------------------------------------|
            1/2                                      1/2
---14-16--16b~-------------17b---rb--16-16~---------16b--rb-14-14~-----------|
-14-----------------14-14---------------------14-14--------------------------|
-----------------------------------------------------------------------------|
-----------------------------------------------------------------------------|
-----------------------------------------------------------------------------|
-----------------------------------------------------------------------------|
                                                        1/2
--------21-21-21^17---19-19-19^16---17-17-17-17^14----16b--rb-14-------------|
--14-14----------------------------------------------------------------------|
-----------------------------------------------------------------------------|
-----------------------------------------------------------------------------|
-----------------------------------------------------------------------------|
-----------------------------------------------------------------------------|

                                                1/2
-13-15-16~------------16b---rb-15-15~----------15b--rb--13-13~---------20-20-|
---------------13-13--------------------13-13--------------------13-13-------|
-----------------------------------------------------------------------------|
-----------------------------------------------------------------------------|
-----------------------------------------------------------------------------|
-----------------------------------------------------------------------------|

-20^16---18-18-18^15---16-16-16-16^13--13-13b------11--8^11^8----------------|
-------------------------------------------------------------11-9---11/13~---|
-----------------------------------------------------------------------------|
-----------------------------------------------------------------------------|
-----------------------------------------------------------------------------|
-----------------------------------------------------------------------------|
                                                     w/bar
--11--8^11^8---------------16---13^16^13-------------------------------------|
------------11-9-11---------------------16-13--------------------------------|
--------------------8~------------------------15-13--13^15--13^15^13---13----|
--------------------------------------------------------------------15---15--|
-----------------------------------------------------------------------------|
-----------------------------------------------------------------------------|

------14-19-14--14-19-14---14\10-----10-14-10--10-14-10--10-14-10------------|
--------------15--------15------12-12--------12--------12--------12----------|
-------------------------------------------------------------------11--------|
-13------------------------------------------------------------------12-11---|
--------------------------------------------------------------------------14-|
-----------------------------------------------------------------------------|

 4x

-15-10------10-15-10--------------------10-----------------------------------|
------11--11--------11----------------11-------------------------------------|
--------12------------12------------12---------------------------------------|
------------------------12--------12-----------------------------------------|
--------------------------13-10-13-------------------------------------------|
-----------------------------------------------------------------------------|

 4x

-11-8---8-11-8----------8----------------------------------------------------|
-----9-9------9--------9-----------------------------------------------------|
------8--------8------8------------------------------------------------------|
----------------10--10-------------------------------------------------------|
------------------11---------------------------------------------------------|
-----------------------------------------------------------------------------|

 4x

-15-10------10-15-10--------------------10-----------------------------------|
------11--11--------11----------------11-------------------------------------|
--------12------------12------------12---------------------------------------|
------------------------12--------12-----------------------------------------|
--------------------------13-10-13-------------------------------------------|
-----------------------------------------------------------------------------|

 4x

-11-8---8-11-8----------8----------------------------------------------------|
-----9-9------9--------9-----------------------------------------------------|
------8--------8------8------------------------------------------------------|
----------------10--10-------------------------------------------------------|
------------------11---------------------------------------------------------|
-----------------------------------------------------------------------------|

 4x

-19-16------16-19-16--------------16-----------------------------------------|
------17--17--------17----------17-------------------------------------------|
--------16------------16------16---------------------------------------------|
------------------------18--18-----------------------------------------------|
--------------------------19-------------------------------------------------|
-----------------------------------------------------------------------------|

 4x

-15-12------12-15-12--------------12-----------------------------------------|
------13--13--------13----------13-------------------------------------------|
--------12------------12------12---------------------------------------------|
------------------------14--14-----------------------------------------------|
--------------------------15-------------------------------------------------|
-----------------------------------------------------------------------------|

 4x

-19-16------16-19-16--------------16-----------------------------------------|
------17--17--------17----------17-------------------------------------------|
--------16------------16------16---------------------------------------------|
------------------------18--18-----------------------------------------------|
--------------------------19-------------------------------------------------|
-----------------------------------------------------------------------------|

 4x

-15-12------12-15-12--------------12-----------------------------------------|
------13--13--------13----------13-------------------------------------------|
--------12------------12------12---------------------------------------------|
------------------------14--14-----------------------------------------------|
--------------------------15-------------------------------------------------|
-----------------------------------------------------------------------------|

 2x

-17-12------12-17-12--------------------12-----------------------------------|
------13--13--------13----------------13-------------------------------------|
--------14------------14------------14---------------------------------------|
------------------------14--------14-----------------------------------------|
--------------------------15-12-15-------------------------------------------|
-----------------------------------------------------------------------------|

 2x

-12-9-----9-12-9------------9------------------------------------------------|
-----10-10------10--------10-------------------------------------------------|
-------9----------9------9---------------------------------------------------|
-------------------11--11----------------------------------------------------|
---------------------12------------------------------------------------------|
-----------------------------------------------------------------------------|

 4x

-17-13------13-17-13--------------13-----------------------------------------|
------15--15--------15----------15-------------------------------------------|
--------14------------14------14---------------------------------------------|
------------------------15--15-----------------------------------------------|
--------------------------17-------------------------------------------------|
-----------------------------------------------------------------------------|

-19-17-16--------------------------------------------------------------------|
---------19-17-15------------------------------------------------------------|
-----------------18-16-14----------------------------------------------------|
--------------------------18-16-14-------------------------------------------|
----------------------------------17-16-14-----------------------------------|
------------------------------------------17-16-14---------------------------|

-----------------------------------------------------------------------------|
-9-7-7-7-9-7-7-7-9-7-7-7-9-7-7-7-9-7-7-7-9-7-7-7-9-7-7-7-9-7-7-7-------------|
-----------------------------------------------------------------------------|
-----------------------------------------------------------------------------|
-----------------------------------------------------------------------------|
-----------------------------------------------------------------------------|
            1/2                                      1/2
---14-16--16b~-------------17b---rb--16-16~---------16b--rb-14-14~-----------|
-14-----------------14-14---------------------14-14--------------------------|
-----------------------------------------------------------------------------|
-----------------------------------------------------------------------------|
-----------------------------------------------------------------------------|
-----------------------------------------------------------------------------|
                                                        1/2
--------21-21-21^17---19-19-19^16---17-17-17-17^14----16b--rb-14-------------|
--14-14----------------------------------------------------------------------|
-----------------------------------------------------------------------------|
-----------------------------------------------------------------------------|
-----------------------------------------------------------------------------|
-----------------------------------------------------------------------------|

                                                1/2
-13-15-16~------------16b---rb-15-15~----------15b--rb--13-13~---------20-20-|
---------------13-13--------------------13-13--------------------13-13-------|
-----------------------------------------------------------------------------|
-----------------------------------------------------------------------------|
-----------------------------------------------------------------------------|
-----------------------------------------------------------------------------|

-20^16---18-18-18^15---16-16-16-16^13--13-13b------11--8^11^8----------------|
-------------------------------------------------------------11-9---11/13~---|
-----------------------------------------------------------------------------|
-----------------------------------------------------------------------------|
-----------------------------------------------------------------------------|
-----------------------------------------------------------------------------|
                                                     w/bar
--11--8^11^8---------------16---13^16^13-------------------------------------|
------------11-9-11---------------------16-13--------------------------------|
--------------------8~------------------------15-13--13^15--13^15^13---13----|
--------------------------------------------------------------------15---15--|
-----------------------------------------------------------------------------|
-----------------------------------------------------------------------------|

-----------------------------------------------------------------------------|
-----------------------------------------------------------------------------|
-----------------------------------------------------------------------------|
-13-15--^13-\10-13-10-----8-10-^8^10^8---10-8--------------------------------|
----------------------13--------------11------11~----------------------------|
-----------------------------------------------------------------------------|

-----------------------------------------------------------------------------|
-9-7-7-7-9-7-7-7-9-7-7-7-9-7-7-7-9-7-7-7-9-7-7-7-9-7-7-7-9-7-7-7-------------|
-----------------------------------------------------------------------------|
-----------------------------------------------------------------------------|
-----------------------------------------------------------------------------|
-----------------------------------------------------------------------------|
            1/2                                      1/2
---14-16--16b~-------------17b---rb--16-16~---------16b--rb-14-14~-----------|
-14-----------------14-14---------------------14-14--------------------------|
-----------------------------------------------------------------------------|
-----------------------------------------------------------------------------|
-----------------------------------------------------------------------------|
-----------------------------------------------------------------------------|
                                                        1/2
--------21-21-21^17---19-19-19^16---17-17-17-17^14----16b--rb-14-------------|
--14-14----------------------------------------------------------------------|
-----------------------------------------------------------------------------|
-----------------------------------------------------------------------------|
-----------------------------------------------------------------------------|
-----------------------------------------------------------------------------|

                                                1/2
-13-15-16~------------16b---rb-15-15~----------15b--rb--13-13~---------20-20-|
---------------13-13--------------------13-13--------------------13-13-------|
-----------------------------------------------------------------------------|
-----------------------------------------------------------------------------|
-----------------------------------------------------------------------------|
-----------------------------------------------------------------------------|

-20^16---18-18-18^15---16-16-16-16^13--13-13b------11--8^11^8----------------|
-------------------------------------------------------------11-9---11/13~---|
-----------------------------------------------------------------------------|
-----------------------------------------------------------------------------|
-----------------------------------------------------------------------------|
-----------------------------------------------------------------------------|

--11--8^11^8----------------------------------13-----------13-16^18^16--16---|
------------11-9-11----------13--11^13^11--11------16-13-16-----------18-----|
--------------------8~-------------------13----------------------------------|
-----------------------------------------------------------------------------|
-----------------------------------------------------------------------------|
-----------------------------------------------------------------------------|

-13^16^13--13-----13-15-16-/20-18-16-18-16--16-13-13-13--------13------------|
---------16-----16------------------------18-----------16-16-16--16-13-16-13-|
-----------------------------------------------------------------------------|
-----------------------------------------------------------------------------|
-----------------------------------------------------------------------------|
-----------------------------------------------------------------------------|

-----------------------------------------------------------------------------|
-----------------------------------------------------------------------------|
-15-13------------------15-13--13--------------------------------------------|
------15-13-15-13--13-15-----15--15-15-15-13-13-15-13------------------------|
-----------------15----------------------------------15-13-------------------|
-----------------------------------------------------------------------------|

-----------------------------------------------------------------------------|
-----------------------------------------------------------------------------|
--3-----------------8-------------------8-----10-----------------------------|
--3-------3---------8--------8----6-----8-----10-----------------------------|
--1-------3---------6--------8----6-----6-----8------------------------------|
----------1------------------6----4------------------------------------------|

-----------------------------------------------------------------------------|
-----------------------------------------------------------------------------|
-5---------5------------------------5----------------------------------------|
-5----3----5-----6-----8------3-----5----------------------------------------|
-3----3----3-----6-----8------3-----3----------------------------------------|
------1----------4-----6------1----------------------------------------------|

-----------------------------------------------------------------------------|
-----------------------------------------------------------------------------|
-----------------------------------------------------------------------------|
---3-------------------------------------------------------------------------|
---3-------------------------------------------------------------------------|
---1-------------------------------------------------------------------------|

-----------------------------------------------------------------------------|
-----------------------------------------------------------------------------|
-----------------------------------------------------------------------------|
---3-------------------------------------------------------------------------|
---3-------------------------------------------------------------------------|
---1\------------------------------------------------------------------------|
comments
print report bad tab
3 comments total.
0 reply
Hendrix_fan_14 wrote on April 18 2008, 07:06 am

fantastic tab

+1 reply
Zep_shizzle wrote on January 3 2009, 09:58 pm

great tab.
i just wish more ppl knew about this song.

0 reply
Karlozmerol wrote on August 16 2013, 08:09 pm

Please,make a tab for Empire :)

I want to post or [tab]
guest
You may want to rate the tab now too:
select rating
Please do not post tabs as comments. Select "correction" instead!