Oops, an error
Loading. Please wait.

Serrana Tab

ver2
ver2

Whole song

More versions @911Tabs.com
22,207 views 81 this week
2 commentsread comments
1 2 3 4 5
accurate
x 7
add to favorites launch autoscroll
font size
0
reset
Autoscroll
+/-
esc
set tempo
stop
Contributor
WARNING: You are trying to view
                                    content from Ultimate-Guitar.com
                                    in an unauthorized application,
                                    which is prohibited.

                                    Please use an official Ultimate
                                    Guitar Tabs application for iPhone,
                                    iPad or Android to access legitimate
                                    chords, guitar, bass, and drum tabs
                                    from Ultimate-Guitar.com database.

                                    Type "ultimate guitar tabs" in Apple
                                    App Store's or Android Market's
                                    search to find the application.



  Q=95
 4/4
  Gtr I
                             |-3-|
   S S  S S  S S S S S S S S S S S  S S   S S S S S  S S S S S S S S  S S S
|----------------------------7h8p7------|-7-6-7-6-7---------------------7-9--|
|-10-9-10-9-10-8-7-----------------10-7-|-----------10-8-7-------7-8-10------|
|--7---------------9-7-6-7-9------------|-0----------------9-8-9-------------|
|------------7-------0-------7----------|------------------7------------7----|
|---------------------------------------|---------7--------------------------|
|---------------------------------------|----------------------7---9---------|
   Q         Q       Q       Q            Q       Q        E   E   E    E
                             |


 4/4
   S S  S S  S S S  S S S S S S S S S   S S  S S S S S  S S S S S S  S S S
|-10-9-10-9-10-9-7----------7-9-8-9-8-|-9-7---------------7-6-7-6-7--------|
|------------------10-8-7-------------|-----10-8-7-----10-----------10-8-7-|
|--7----------------------9---6-------|-0----------9-7----0----------------|
|-------7--------0--------7-----------|----------0-------------------------|
|------------9--------7-----------7---|------9--------------------7--------|
|-------------------------------------|--------------7---------------------|
   E    E    E   E    E   E   E   E     E    E   E   E    Q       Q


                        Q=130
 2/4                   11/8
   S S  S S  S S S  S    E E  E E E  E E E  E E  E
|--------------7-9-10-|-12-9-10-7------7-------------|
|-10-9-10-9-10--------|-----------7-10---8-10-7------|
|------------7--------|----9-11-7----------------7---|
|-------7-------------|-----------9-11-7-9-11-7------|
|--9------------------|-------------------------10-9-|
|---------------------|------------------------------|
   E    E    Q           S E  E E E  E E E  E E  E S


  Q=95
 4/4
   S S  S S  S S S S  S  S  S S  S  S S  S
|---------7-------------------9------------|
|-10-9-10---10-8-7---12-11-12---12-10-8----|
|--7---------------9--------------------11-|
|---------------------9--------------------|
|------------9-------------------7---------|
|------------------------------------------|
   Q         Q        Q          Q


 7/8
  S S  S  S  S S  S  S  S  S  S S  S S
|---------------------------------------|
|---------------------------------------|
|-9-8--9-11-12-9-11-12-11-12-11-9--7----|
|-7---11----------0------------------9--|
|------------0----------9-10-12-9-------|
|---------------------------------------|
  E    E     E    E     S  S  S E.


 4/4
  S S S S S S S S S S S S S S S S   S S S S S S S S  S S  S  S S  S  S  S
|-------5-----------------------2-|-4-2-4-7-5-4-2-0------------9-10-12-14---|
|-8-7-8---8-7-5-8-7-5-7-8-7-5-3---|-----------------10-9-10-12--------------|
|---------------------------------|-----------------------6-----------------|
|-5-----------5---0---------------|-2-------2---6----7----------------------|
|---------7---------------2-------|----------------------------0------------|
|---------------------------------|-----------------------------------------|
  Q       E   E   Q       Q         Q       E   E    E    E    Q


  Q=90  Q=80  Q=70  Q=60
 7/4
   E  E  E  E  E  E  E  E  Q  H
|-15-14-12-------------------------|
|-17-15-14-15-14-12----------------|
|----------16-14-12-14-12-10-11----|
|-------------------16-14-11-12----|
|----------------------------------|
|----------------------------------|


  Q=85
 4/4
   T  T  T  T  T  T  T  T  T  T  T  T  T  T  T  T   T  T  T  T T  T T  T  T  T T  T  T T  T  T
|-14-12-10----------------10-------------------------------------------------------------------|
|----------14-12-10-12-14----14-12-10----------10--12-10---------------------------------------|
|-------------------------------------12-11-12-----------12-11-9----9-11-12-11-9---------------|
|----------------------------------------------------------------12--------------12-11-9-11-12-|
|----------------------------------------------------------------------------------------------|
|----------------------------------------------------------------------------------------------|


 9/8
  T T T T T T T T  T  T T  T  T T T T  T  T T  T  S  S  S  S  Q
|----------------------------10-9-7-9-12-10-9-10-12-14-15-17-19----|
|---------8-7-5-7-12-10-8-10---------------------------------------|
|-9-7-6-7----------------------------------------------------------|
|------------------------------------------------------------------|
|------------------------------------------------------------------|
|------------------------------------------------------------------|


 4/4
                                                                           ~~
                              |--3--|           |--3--|           |--3--|
   S  S  S  S  S  S  S  S  S  S  S  S  S  S  S  S  S  S  S  S  S  S  S  S  H
|-17-15-14----------14-12-10----------------------------------------------------|
|----------17-15-14----------14-12-10-15-14-12----------------------------------|
|----------------------------------------------14-12-11-16-14-12-11-------------|
|-------------------------------------------------------------------14-12-11----|
|-------------------------------------------------------------------------------|
|-------------------------------------------------------------------------------|


   T  T  T  T  T  T  T  T  T  T  T  T  T  T  T  T  T  T  T  T  T  T  T  T  T  T  T  T  T  T  T
|-------------------------------------------------------------------------------------------------|
|-------------------------------------------------------------------------------------------------|
|-------------------12-14-16-14-12-------------------------------14-16-18-19-18-16----------------|
|----------12-14-16----------------16-14-12-------------14-16-17-------------------19-17-16-------|
|-12-14-16----------------------------------16-14-16-17-------------------------------------19----|
|-------------------------------------------------------------------------------------------------|


   T  T  T  T  T  T  T  T  T  T  T  T  T  T  T  T  T  T  T  T  T  T  T  T  S  S  S  S  S  S  S  S
|-------------------------------------------------------------------19-21----22---------------------|
|----------------------------19----------------------------19-20-22-------22----22-19---------------|
|-------------------18-19-21----21-19-18----------18-19-21----------------------------19-18---------|
|----------17-19-21----------------------21-19-21-------------------------------------------20-17---|
|-17-19-21------------------------------------------------------------------------------------------|
|---------------------------------------------------------------------------------------------------|


  Q=75  Q=65 Q=55
   S  S  S S S H
|-----------------|
|-----------------|
|-----------------|
|-14-12------7----|
|-------12-9---5--|
|-----------------|


  Q=60              Q=68              Q=76              Q=84
   T  T  T  T  T  T  T  T  T  T  T  T  T  T  T  T  T  T  T  T  T  T  T  T
|---------------------------------------------------------------------------|
|---------------------------------------------------------------------------|
|---------------------------------------------------------------------------|
|----------------------------------------------------------------16-17-19---|
|----------10-12-14----------14-16-17----------17-19-21-16-17-19------------|
|-10-12-14----------14-15-17----------17-19-21------------------------------|


                    Q=90              Q=95              Q=100
   T  T  T  T  T  T  T  T  T  T  T  T  T  T  T  T  T  T  T  T  T  T  T  T
|----------------------------------------------14-15-17----------17-19-21----|
|----------------------------14-15-17-14-15-17----------17-19-20-------------|
|----------14-16-18-12-14-16-------------------------------------------------|
|-14-16-17-------------------------------------------------------------------|
|----------------------------------------------------------------------------|
|----------------------------------------------------------------------------|


 Theme
  Q=140
  D
 4/4
  Gtrs II, III, IV
   h                                              +E  e  e  e
   |                                               |  |  |  |
   /                                               /  /  /  /

  Gtr I
      |--3--|  |------6-------|  |------6-------|  |------6-------|
   E  S  S  S  S  S  S  S  S  S  S  S  S  S  S  S  S  S  S  S  S  S
|-22-------------------------------------------14-17p14-------------|
|-------------15----------------------------15----------15----------|
|----------14----14----------------------14----------------14-------|
|-------16----------16----------------16----------------------16----|
|----17----------------17-12----12-17----------------------------17-|
|----------------------------14-------------------------------------|


   h                                  +E  e  e  e
   |                                   |  |  |  |
   /                                   /  /  /  /

   |------6-------|  |------6-------|  |------6-------|  |------6-------|
   S  S  S  S  S  S  S  S  S  S  S  S  S  S  S  S  S  S  S  S  S  S  S  S
|----------------14-17p14----------14-22p17----------------------------17--|
|-------------15----------15----15----------19----------------------19-----|
|----------14----------------14----------------19----------------19--------|
|-------16----------------------------------------19-16----16-19-----------|
|-12-17-------------------------------------------------17-----------------|
|--------------------------------------------------------------------------|


  G
   h                                                    +e  e  e  e
   |                                                     |  |  |  |
   /                                                     /  /  /  /

   |--3--|  |--3--|  |--3--|  |--3--|  |--3--|  |--3--|  |--3--|  |--3--|
   S  S  S  S  S  S  S  S  S  S  S  S  S  S  S  S  S  S  S  S  S  S  S  S
|-19p15----------------------------15-22p19-------------------------19-22-|
|-------15----------------------15----------20-------------------20-------|
|----------16----------------16----------------19-------------19----------|
|-------------17----------17----------------------21-17-17-21-------------|
|----------------17-14-17-------------------------------------------------|
|-------------------------------------------------------------------------|


   h                                                    +e  e  e  e
   |                                                     |  |  |  |
   /                                                     /  /  /  /

   |--3--|  |--3--|  |--3--|  |--3--|  |--3--|  |--3--|  |--3--|  |--3--|
   S  S  S  S  S  S  S  S  S  S  S  S  S  S  S  S  S  S  S  S  S  S  S  S
|-22-19----------19-19p15----------15-15p10----------------------------10--|
|-------20----20----------15----15----------12----------------------12-----|
|----------19----------------16----------------12----------------12--------|
|-------------------------------------------------12----------12-----------|
|----------------------------------------------------14-10-14--------------|
|--------------------------------------------------------------------------|


  A
   h                                                +e  e  e  e
   |                                                 |  |  |  |
   /                                                 /  /  /  /

   |-----6------|  |-----6------|  |------6-------|  |------6-------|
   S S  S S  S  S  S  S S  S S  S  S  S  S  S  S  S  S  S  S  S  S  S
|-12p9-----------------------9-12s17p12----------------------------12-|
|------10-----------------10------------14----------------------14----|
|---------9-------------9------------------14----------------14-------|
|-----------11-------11-----------------------14----------14----------|
|--------------12-12-----------------------------16-12-16-------------|
|---------------------------------------------------------------------|


   h                                           +e e e e
   |                                            | | | |
   /                                            / / / /

   |------6-------|  |-----6-----| |----6----|  |----6----|
   S  S  S  S  S  S  S S  S S  S S S S S S S S  S S S S S S
|-17p12----------12-12p9---------9-9p5-----------------------|
|-------14----14---------10---10-------5---------------------|
|----------14---------------9------------6----------------6--|
|------------------------------------------7------------7----|
|--------------------------------------------7--4---4-7------|
|-------------------------------------------------5----------|


  D
   h                                                   +e  e  e  e
   |                                                    |  |  |  |
   /                                                    /  /  /  /

   |------6-------| |------6-------|  |------6-------|  |------6-------|
   S  S  S  S  S  S S  S  S  S  S  S  S  S  S  S  S  S  S  S  S  S  S  S
|-14p10---------------------------10s17p14----------------------------14-|
|-------10---------------------10----------15----------------------15----|
|----------11---------------11----------------14----------------14-------|
|-------------12---------12----------------------16----------16----------|
|----------------12-9-12----------------------------17-12-17-------------|
|------------------------------------------------------------------------|


   h                                  +e  e  e  e
   |                                   |  |  |  |
   /                                   /  /  /  /

   |------6-------|  |------6-------|  |------6-------|
   S  S  S  S  S  S  S  S  S  S  S  S  S  S  S  S  S  S  S E S
|-17p14----------14-18p14----------14-16p14----------14-17-----|
|-------15----15----------15----15----------15----15-----------|
|----------14----------------14----------------14--------------|
|--------------------------------------------------------------|
|--------------------------------------------------------------|
|--------------------------------------------------------------|


    F#m
     h                                                    +e  e  e  e
     |                                                     |  |  |  |
     /                                                     /  /  /  /

     |------6-------|  |------6-------|  |------6-------|  |------6-------|
     S  S  S  S  S  S  S  S  S  S  S  S  S  S  S  S  S  S  S  S  S  S  S  S
||--21p17----------------------------17-21p17----------17-22p17----------17--||
||o-------19----------------------19----------19----19----------19----19----o||
||-----------18----------------18----------------18----------------18--------||
||--------------19----------19-----------------------------------------------||
||o----------------21-16-21-------------------------------------------------o||
||---------------------------------------------------------------------------||


  Bm
   h                                                    +e  e  e  e
   |                                                     |  |  |  |
   /                                                     /  /  /  /

   |------6-------|  |------6-------|  |------6-------|  |------6-------|
   S  S  S  S  S  S  S  S  S  S  S  S  S  S  S  S  S  S  S  S  S  S  S  S
|-19p14----------------------------14-19p14----------14-21p14----------14-|
|-------15----------------------15----------15----15----------15----15----|
|----------16----------------16----------------16----------------16-------|
|-------------16----------16----------------------------------------------|
|----------------17-14-17-------------------------------------------------|
|-------------------------------------------------------------------------|


   h +e  e  e  e
   |  |  |  |  |
   /  /  /  /  /

   |--3--|  |--3--|  |--3--|  |--3--|  |--3--|  |--3--|  |--3--|  |--3--|
   S  S  S  S  S  S  S  S  S  S  S  S  S  S  S  S  S  S  S  S  S  S  S  S
|-19p14----------------------------14-19p14----------14-21p14----------14-|
|-------15----------------------15----------15----15----------15----15----|
|----------16----------------16----------------16----------------16-------|
|-------------16----------16----------------------------------------------|
|----------------17-14-17-------------------------------------------------|
|-------------------------------------------------------------------------|


  Em                                  Cm
   H                                   H
   |                                   |
   /                                   /

   |--3--|  |--3--|  |--3--|  |--3--|  |--3--|  |--3--|  |--3--|  |--3--|
   S  S  S  S  S  S  S  S  S  S  S  S  S  S  S  S  S  S  S  S  S  S  S  S
|-24p19-------------------------------20p15--------------------------------|
|-------20-------------------------20-------16-------------------------16--|
|----------21-------------------21-------------17-------------------17-----|
|-------------21-------------21-------------------17-------------17--------|
|----------------22-19----22-------------------------18-15----18-----------|
|----------------------19----------------------------------15--------------|


  Abm
   h                                                    +e  e  e  e
   |                                                     |  |  |  |
   /                                                     /  /  /  /

   |------6-------|  |------6-------|  |------6-------|  |------6-------|
   S  S  S  S  S  S  S  S  S  S  S  S  S  S  S  S  S  S  S  S  S  S  S  S
|-16p11----------------------------11-16p11----------11-18p11----------11-|
|-------12----------------------12----------12----12----------12----12----|
|----------13----------------13----------------13----------------13-------|
|-------------13----------13----------------------------------------------|
|----------------14-11-14-------------------------------------------------|
|-------------------------------------------------------------------------|


  Eb
   h                                                    +e  e  e  e
   |                                                     |  |  |  |
   /                                                     /  /  /  /

   |------6-------|  |------6-------|  |------6-------|  |------6-------|
   S  S  S  S  S  S  S  S  S  S  S  S  S  S  S  S  S  S  S  S  S  S  S  S
|-15p11----------------------------11-18p15----------------------------15--|
|-------11----------------------11----------16----------------------16-----|
|----------12----------------12----------------15----------------15--------|
|-------------13----------13----------------------17----------17-----------|
|----------------13-10-13----------------------------18-13-18--------------|
|--------------------------------------------------------------------------|


   h                                  +e  e  e  e
   |                                   |  |  |  |
   /                                   /  /  /  /

   |------6-------|  |------6-------|  |------6-------|
   S  S  S  S  S  S  S  S  S  S  S  S  S  S  S  S  S  S  S E S
|-23p18----------------------------18-23p18--------------------|
|-------20----------------------20----------20-----------------|
|----------20----------------20----------------20--------------|
|-------------20-17----17-20----------------------20-17--------|
|-------------------18----------------------------------18-----|
|--------------------------------------------------------------|


  D+7
   h                                                    +e  e  e  e
   |                                                     |  |  |  |
   /                                                     /  /  /  /

   |------6-------|  |------6-------|  |------6-------|  |------6-------|
   S  S  S  S  S  S  S  S  S  S  S  S  S  S  S  S  S  S  S  S  S  S  S  S
|----------------13-16p13----19p16----22p19----------------------17-18-19-|
|-15p12----12-15----------15-------18-------21----------------21----------|
|-------13-------------------------------------22-19----19-22-------------|
|----------------------------------------------------21-------------------|
|-------------------------------------------------------------------------|
|-------------------------------------------------------------------------|


    Cm
     h                                                    +e  e  e  e
     |                                                     |  |  |  |
     /                                                     /  /  /  /

     |------6-------|  |------6-------|  |------6-------|  |------6-------|
     S  S  S  S  S  S  S  S  S  S  S  S  S  S  S  S  S  S  S  S  S  S  S  S
||--20p15----------------------------15-20p15----------15-22p15----------15--||
||o-------16----------------------16----------16----16----------16----16----o||
||-----------17----------------17----------------17----------------17--------||
||--------------17----------17-----------------------------------------------||
||o----------------18-15-18-------------------------------------------------o||
||---------------------------------------------------------------------------||


  C°
   h                                                    +e  e  e  e
   |                                                     |  |  |  |
   /                                                     /  /  /  /

   |------6-------|  |------6-------|  |------6-------|  |------6-------|
   S  S  S  S  S  S  S  S  S  S  S  S  S  S  S  S  S  S  S  S  S  S  S  S
|-20p17----------------------------17-20p17----------17p14----------14----|
|-------19----------------------19----------19-------------16----------16-|
|----------20-17----------17-20----------------20-17----------17-14-------|
|----------------19-16-19-------------------------------------------------|
|-------------------------------------------------------------------------|
|-------------------------------------------------------------------------|


   h                                                    +e  e  e  e
   |                                                     |  |  |  |
   /                                                     /  /  /  /

   |------6-------|  |------6-------|  |------6-------|  |------6-------|
   S  S  S  S  S  S  S  S  S  S  S  S  S  S  S  S  S  S  S  S  S  S  S  S
|-17p14----------------------------14-17p14-------------------------------|
|-------16----------------------16----------16-------16p13----------------|
|----------17-14----------14-17----------------17-14-------14-------14-11-|
|----------------16-13-16-------------------------------------16-13-------|
|-------------------------------------------------------------------------|
|-------------------------------------------------------------------------|


  G     G#    G     Gb
   q     q     q     q
   |     |     |     |
   /     /     /     /

   E  E  E  E  E  E  E  E
|----15----16----15----14-*|
|-------------------------*|
|-12----13----12----11----*|
|-------------------------*|
|-------------------------*|
|-------------------------*|
   Q     Q     Q     Q


  Q=130
  G
   q
   |
   /

   |--3--|  |--3--|  |--3--|  |--3--|
   S  S  S  S  S  S  S  S  S  S  S  S  H
|----------------------------15-19-22-24b27=====|
|-------------------------15--------------------|
|-12-------------------16-----------------------|
|----12-------------17--------------------------|
|-------14----14-17-----------------------------|
|----------15-----------------------------------|


   |--------6---------|  |------6-------|  |------6-------|  |------6-------|
   S      S  S  S  S  S  S  S  S  S  S  S  S  S  S  S  S  S  S  S  S  S  S  S
|-24pb27-22p19-------------------------------------------------------15-19S22-|
|--------------20----------------------------------------------15h18----------|
|-----------------19----------------------------------------16----------------|
|--------------------21-------------------------------15h17-------------------|
|-----------------------22p17-------------------14-17-------------------------|
|-----------------------------19p15-14-13-14-15-------------------------------|


   |------6-------|  |------6------|  |------6-------|  |------6-------|
   S  S  S  S  S  S  S  S  S  S S  S  S  S  S  S  S  S  S  S  S  S  S  S
|-24p20---------------------------------------------------------15-20-22--|
|-------20S17------------------------------------13-------13-16-----------|
|-------------17------------------------------12-------12-----------------|
|----------------17---------------------10-13-------13--------------------|
|-------------------19p15------------10-----------------------------------|
|-------------------------15S12-8h11--------------------------------------|


   |------6-------|  |-----6------|  |------6------|  |------6------|  |------3-------|
   S  S  S  S  S  S  S  S  S  S S S  S S  S  S  S  S  S  S S  S  S  S  S  S  S  S  S  S
|-19S15----------------------------------------------------9-19-20-15----------------------|
|-------15-------------------------------------12-------12------------17-------------------|
|----------16-------------------------------12-------12------------------17----------------|
|-------------17----------------9------9-11-------11------------------------19-------------|
|----------------17-14-------10-----10-----------------------------------------15----------|
|----------------------15-10------9-----------------------------------------------13-12----|



comments
print report bad tab
2 comments total.
+3 reply
Halfmastmutiny wrote on March 27 2008, 02:12 pm

YOU HAVE NO LIFE!!!...and I thank you for it.

+2 reply
Azeteck wrote on November 29 2008, 09:24 pm

Well, now time to spend a year on this.

I want to post or [tab]
guest
You may want to rate the tab now too:
select rating
Please do not post tabs as comments. Select "correction" instead!