Oops, an error
Loading. Please wait.

Temple Of The Absurd Tab

4,018 views 12 this week
1 commentread comment
1 2 3 4 5
excellent!
x 3
add to favorites launch autoscroll
font size
0
reset
Autoscroll
+/-
esc
set tempo
stop
Contributor
WARNING: You are trying to view
                                    content from Ultimate-Guitar.com
                                    in an unauthorized application,
                                    which is prohibited.

                                    Please use an official Ultimate
                                    Guitar Tabs application for iPhone,
                                    iPad or Android to access legitimate
                                    chords, guitar, bass, and drum tabs
                                    from Ultimate-Guitar.com database.

                                    Type "ultimate guitar tabs" in Apple
                                    App Store's or Android Market's
                                    search to find the application.
                         Jason Becker/Perpetual Burn
                           "Temple Of The Absurd"


-----------------------------------------------------------------------------|
-----------------------------------------------------------------------------|
--------------------------10~--9---------10~--9------------------------------|
--------10-9--14-12-------------12-10-9---------12-10-9--------------9-10-12-|
--11-12-------------11~--------------------------------12-11~---11-12--------|
-----------------------------------------------------------------------------|

-----------------------------------------------------------------------------|
--------9-10-9--------------9-10-12-13b~-------------------------------------|
-9-10-12-------12-10-9-10-12-------------------------------------------------|
-----------------------------------------------------------------------------|
-----------------------------------------------------------------------------|
-----------------------------------------------------------------------------|

-----------------------------------------------------------------------------|
-----------------------------------------------------------------------------|
--------------------------10~--9---------10~--9------------------------------|
--------10-9--14-12-------------12-10-9---------12-10-9--------------9-10-12-|
--11-12-------------11~--------------------------------12-11----11-12--------|
-----------------------------------------------------------------------------|

-----------------------------------------------------------------------------|
--------9-10-9--------------9-10-12-13b~-------------------------------------|
-9-10-12-------12-10-9-10-12-------------------------------------------------|
-----------------------------------------------------------------------------|
-----------------------------------------------------------------------------|
-----------------------------------------------------------------------------|

-----------------------------------------------------------------------------|
-----------------------------------------------------------------------------|
-------------14---------15~--14-----------15~---14---------------------------|
-------14-15---15-14~----------17-15-14-----------17-15-14-------------------|
-12-13-----------------------------------------------------------------------|
-----------------------------------------------------------------------------|

--------------------------------------------------------------15-18-19b~-----|
---------------------------14-11------11-14-11------11------17---------------|
-12-9------9-12-9------9--------12--12--------12--12------18-----------------|
-----11--11------11--13-----------14------------14---------------------------|
-------13----------13--------------------------------------------------------|
-----------------------------------------------------------------------------|

-----------------------------------------------------------------------------|
-----------------------------------------------------------------------------|
-------------14---------15~--14-----------15~---14---------------------------|
-------14-15---15-14~----------17-15-14-----------17-15-14-------------------|
-12-13-----------------------------------------------------------------------|
-----------------------------------------------------------------------------|


-------------------------------------------------------------16-19-16------16-|
-----------------------9-6---6-9-6---6---------18-15------15---------18--18---|
-10-7-----7-10-7----7-----7-7-----7-7---------------16--16-------------19-----|
-----9---9------9--9-------9-------9------------------18----------------------|
-------11--------11-----------------------------------------------------------|
------------------------------------------------------------------------------|
                                                                   w/bar
-19-16-----------------------------------------------------------------------|
------18-------18-15------15-12------12------12-9------9-6---6---------------|
--------19-16-------16---------13--13------------10-------7-7------/4~-------|
----------------------18---------15----------------12------9-----------------|
-----------------------------------------------------------------------------|
-----------------------------------------------------------------------------|
    w/bar w/bar
-----------------------------------------------------------------------------|
---/6--3---------------------------------------------------------------------|
----------/3~---------------drum-fill----------------------------------------|
-----------------------------------------------------------------------------|
-----------------------------------------------------------------------------|
-----------------------------------------------------------------------------|

  2x                                 hard palm mute
-----------------------------------------------------------------------------|
-----------------------------------------------------------------------------|
-----------------10--------8-------------------------------------------------|
-----------------10--------8-------------------------------------------------|
-----------------8---------6----------2-3-2--2-3-2---------------------------|
-0-0-0-0-0-0-0-0---0-0-0-0---0-0-0-0-3-----2---------------------------------|

-----------------------------------------------------------------------------|
-----------------------------------------------------------------------------|
-----------------10--------8-------------------------------------------------|
-----------------10--------8-------------------------------------------------|
-----------------8---------6---------6-\5-\4-\3------------------------------|
-0-0-0-0-0-0-0-0---0-0-0-0---0-0-0-0-4-\3-\2-\1------------------------------|
                                    (2nd time reverse)

 (2nd guitar doubles from an octave below (D string)
-----------------------------------------------------------------------------|
-12-13~---------10-9~-----------------12-13~--------16-17~----19-20~---------|
--------------------------10-9~----------------------------------------------|
-----------------------------------------------------------------------------|
-----------------------------------------------------------------------------|
-----------------------------------------------------------------------------|

-----------------------------------------------------------------------------|
-----------------------------------------------------------------------------|
--10-9-7-----------7-9--10~---/13---10-9-7-----------7-9--10---7~------------|
--------10-9-7-9-10-----------------------10-9-7-9-10------------------------|
-----------------------------------------------------------------------------|
-----------------------------------------------------------------------------|

-----------------------------------------------------------------------------|
-----------------------------------------------------------------------------|
--10-9-7-----------7-9--10~----13--\10-\9-9^10^9\7-9~------------------------|
--------10-9-7-9-10----------------------------------------------------------|
-----------------------------------------------------------------------------|
-----------------------------------------------------------------------------|

-----------------------------------------------------------------------------|
-----------------------------------------------------------------------------|
--10-9-7------------7-9--10~---/13------10-9-7-----------7-9-10~--7~--5------|
--------10-9-7-9-10---------------------------10-9-7-9-10--------------------|
-----------------------------------------------------------------------------|
-----------------------------------------------------------------------------|

-----------------------------------------------------------------------------|
------------------------------------------10-9-------------------------------|
--10-9-7-----------7-9--10~----13--\10-\9-----10-9~--------------------------|
--------10-9-7-9-10----------------------------------------------------------|
-----------------------------------------------------------------------------|
-----------------------------------------------------------------------------|

      w/bar
-----------------------------------------------------------------------------|
--------------9--------------------------------------------------------------|
--5-7-9~--------7--5-------------------------9--10---------------------------|
----------6-6---------9^10^9^7--10-9-7-9--/9--9---9-10-----------------------|
-------------------------------------------------------11--12-10-8-----------|
------------------------------------------------------------------12-10------|
                                           1/2
-----------------------------------------------------------12--10------------|
-----------------------------------10-12--12b~---------------------13-12-13--|
-------------------------------------------------13--13-13-------------------|
-----------------------------------------------------------------------------|
-----------8--5--------------------------------------------------------------|
--5-4-5-7------7-5-4--/7~----------------------------------------------------|

----------------------12-10---10^7-------------------------------------------|
-12-10-13-12-10-12-/13------------10-8-6-------------------------------------|
----------------------------------------10^7----------------9-10-------------|
--------------------------------------------10-9-7---9-10-12----12-10-9------|
-----------------------------------------------------------------------12-11-|
-----------------------------------------------------------------------------|

-----------------------------------------------------10-10-10-10-12-10-10-10-|
---------------9-9-9-9-10-9-9-9-10-9-10--------------------------------------|
---------------------------------------10-9-10-------------------------------|
----------------------------------------------10-9-10------------------------|
--/14~-----------------------------------------------------------------------|
-----------------------------------------------------------------------------|


--12-10-12---------------10-12-10-------------10-12-10-12-10-----10-12-10-12-|
----------10-9-10----------------13-12-10-9-10--------------10-9-------------|
-----------------10-9-10-----------------------------------------------------|
-----------------------------------------------------------------------------|
-----------------------------------------------------------------------------|
-----------------------------------------------------------------------------|

-10------13-10---------16-13---------16-13-------13-10-----------------------|
---10-9-------12------------15------------15----------12----13b~-------------|
----------------13------------16------------16----------13-------------------|
-----------------------------------------------------------------------------|
-----------------------------------------------------------------------------|
-----------------------------------------------------------------------------|
                                                            1/2
-------------------------15b---rb-15-----10----10---------------8------------|
-15-13-13b--rb--15----15------------15-----13b----13-10---12b-----12-10------|
-----------------------------------------------------------------------------|
-----------------------------------------------------------------------------|
-----------------------------------------------------------------------------|
-----------------------------------------------------------------------------|

     1/2                  1/2               1st guitar------------------------|
---------5--5-----------------------------------------------------------------|
-10-9b--------6-5-------------------------------------------------------------|
------------------7-5-4---------------------6-7--9--10-9~-------9---6-7-10-9~-|
------------------------6b-rb-------------------------------7-8---8-----------|
-----------------------------8-7-5--------------------------------------------|
----------------------------------8-7-5-4-------------------------------------|
 2nd guitar
-----------------------------------------------------------------------------|
-----------------------------------------------------------------------------|
-------6-----------------6---6-----------------------------------------------|
---7-8--7-6---------5-7-8--8---8---------------------------------------------|
------------8-7--------------------------------------------------------------|
-----------------------------------------------------------------------------|
 1st guitar
-----------------------------------------------------------------------------|
-----------------------------------------------------------------------------|
------9-7-10-9~-----6------7----9~-----------6-7--9---10-9~------7---6-7--9~-|
--7-8----------------7-7-7--8-8-------------------------------7-8--8---------|
-----------------------------------------------------------------------------|
-----------------------------------------------------------------------------|
 2nd guitar
-----------------------------------------------------------------------------|
-----------------------------------------------------------------------------|
----------------6--------6-7--6-----------------6---------------6------------|
-8-7-6--7---------8-7--8--------------------7-8---7--6-------7-8-8-7---------|
---------8-7~------------------------------------------8-7-----------8-7-----|
-----------------------------------------------------------------------------|
 1st guitar
---------------------------8/9-----------10/11--------------12/13-------/17b~-|
--------------------------7----8--------9-----10----------11------------------|
-6-7--9---10--9~---------5------6--/---7---------8--/----9--------------------|
------------------------------------------------------------------------------|
------------------------------------------------------------------------------|
------------------------------------------------------------------------------|
 2nd guitar
-----------------------------------------------------------------------------|
-----------------------------------------------------------------------------|
-----------------------------------------------------------------------------|
-7-8-7---7-------------------------------------------------------------------|
-------0---8-7~--------------------------------------------------------------|
-----------------------------------------------------------------------------|


  2x                                 hard palm mute
-----------------------------------------------------------------------------|
-----------------------------------------------------------------------------|
-----------------10--------8-------------------------------------------------|
-----------------10--------8-------------------------------------------------|
-----------------8---------6----------2-3-2--2-3-2---------------------------|
-0-0-0-0-0-0-0-0---0-0-0-0---0-0-0-0-3-----2---------------------------------|

-----------------------------------------------------------------------------|
-----------------------------------------------------------------------------|
-----------------10--------8-------------------------------------------------|
-----------------10--------8-------------------------------------------------|
-----------------8---------6---------6-\5-\4-\3------------------------------|
-0-0-0-0-0-0-0-0---0-0-0-0---0-0-0-0-4-\3-\2-\1------------------------------|
                                    (2nd time reverse)

-----------------------------------------------------------------------------|
-12-13~---------10-9~-----------------12-13~--------16-17~----19-20~---------|
--------------------------10-9~----------------------------------------------|
-----------------------------------------------------------------------------|
-----------------------------------------------------------------------------|
-----------------------------------------------------------------------------|

Marty's solo

---------------------15b«------15b-rb-13-12-13-------------------------------|
--15b~--------rb15-12-------------------------15-13-15-12-11^14^11-12~-------|
-----------------------------------------------------------------------13----|
-----------------------------------------------------------------------------|
-----------------------------------------------------------------------------|
-----------------------------------------------------------------------------|


-----------------------------------------------------------------------------|
---------------------------------------------------------------14--14b«--rb--|
-13b«--rb13------13b«---13rb-------13b«--rb13-------13-14-16-----------------|
-----------15-14------------15-14-------------15-14--------------------------|
-----------------------------------------------------------------------------|
-----------------------------------------------------------------------------|

-----------------------------------------------/16-13------------13-16-15-14-|
-14---12^14^12\11-12---------------------------------15-12-----12------------|
---------------------14-14b--rb14-13-14-13~---------------13-14--------------|
-----------------------------------------------------------------------------|
-----------------------------------------------------------------------------|
-----------------------------------------------------------------------------|

-13-14-15-16-13--------------------------------------------------------------|
---------------12------------------------------------------------------------|
-----------------13------/16--15--14--13~--------13^14^13--------13-14-13----|
-------------------15------------------------------------15-14-15--------15--|
-----------------------------------------------------------------------------|
-----------------------------------------------------------------------------|

-----------------------------------------------------------------------------|
-----------------------------------------------------------------------------|
-------13------------------------------13-14-13~-----12-14-13-12--14-13-12---|
-14-15---15-14-12-14-12--------12-14-15------------14-----------14--------14-|
-----------------------15-14-15----------------------------------------------|
-----------------------------------------------------------------------------|

--------------------------12--15-12------12--15--12------12-------------------|
--------------12-17-12--12---------12--12----------12--12--12^15^12-----------|
--16-14-13--13--------13-------------13--------------13------------13---------|
----------14---------------------------------------------------------15^12^15-|
------------------------------------------------------------------------------|
------------------------------------------------------------------------------|

--------12-----12-16-12------15b-----rb--12^15^12----------------------------|
---12^15-----12--------12-------(15b)------------15-17~----------------------|
-13--------13------------13--------------------------------------------------|
-----------------------------------------------------------------------------|
-----------------------------------------------------------------------------|
-----------------------------------------------------------------------------|
                                     1/2
-------------------------10-10-12--12b--rb----10^12^10---11------------------|
---9-9-9--10-^9^10^9-----------------------12---------11----9-9-9-10--9^10^9-|
--------------------10-9-----------------------------------------------------|
-----------------------------------------------------------------------------|
-----------------------------------------------------------------------------|
-----------------------------------------------------------------------------|
          1 1/2                                                      1/2
------10b--------rb---------------------------------------10-10-12--12b---rb-|
--------------------12-9-----------9-9-9--10-9^10^9--------------------------|
-10-9-------------------10-------------------------10-9----------------------|
--------------------------12~------------------------------------------------|
-----------------------------------------------------------------------------|
-----------------------------------------------------------------------------|
                                                             1 1/2
--10^12^10---------------------------------16-13----------19b---------rb\----|
----------11-12--\---9-9-9--10--9^10^9----------15---------------------------|
--------------------------------------10-9--------16-13----------------------|
-------------------------------------------------------15--------------------|
-----------------------------------------------------------------------------|
-----------------------------------------------------------------------------|

 1st guitar
-----------------------------------------------------------------------------|
-----------------------------------------------------------------------------|
-6-7--9--10-9~----------9---6-7-10-9~----------------------------------------|
--------------------7-8---8--------------------------------------------------|
-----------------------------------------------------------------------------|
-----------------------------------------------------------------------------|

 2nd guitar
-----------------------------------------------------------------------------|
-----------------------------------------------------------------------------|
-------6-----------------6---6-----------------------------------------------|
---7-8--7-6---------5-7-8--8---8---------------------------------------------|
------------8-7--------------------------------------------------------------|
-----------------------------------------------------------------------------|
 1st guitar
-----------------------------------------------------------------------------|
-----------------------------------------------------------------------------|
------9-7-10-9~-----6------7----8b~----------6-7--9---10-9~------7---6-7--9~-|
--7-8----------------7-7-7--8-8-------------------------------7-8--8---------|
-----------------------------------------------------------------------------|
-----------------------------------------------------------------------------|
 2nd guitar
-----------------------------------------------------------------------------|
-----------------------------------------------------------------------------|
----------------6--------6-7--6-----------------6---------------6------------|
-8-7-6--7---------8-7--8--------------------7-8---7--6-------7-8-8-7---------|
---------8-7~------------------------------------------8-7-----------8-7-----|
-----------------------------------------------------------------------------|
 1st guitar
-----------------------------------------------------------------------------|
-----------------------------------------------------------------------------|
-6-7--9---10--9~-------------------------------------------------------------|
-----------------------------------------------------------------------------|
-----------------------------------------------------------------------------|
-----------------------------------------------------------------------------|
 2nd guitar
-----------------------------------------------------------------------------|
-----------------------------------------------------------------------------|
-----------------------------------------------------------------------------|
-7-8-7---7-------------------------------------------------------------------|
-------0---8-7~--------------------------------------------------------------|
-----------------------------------------------------------------------------|


---6/7-----8/9-----10/11-------12-----8/9-----10/11-------12/13---------14/15-|
--5---6---7---8---9-----10---11------7---8---9-----10---11-----12-----13------|
-3-----4/5-----6/7--------8/9-------5-----6/7--------8/9---------10/11--------|
------------------------------------------------------------------------------|
------------------------------------------------------------------------------|
------------------------------------------------------------------------------|

-----------------------------------------------------------------------------|
-14-------15b~---------------------------------------------------------------|
---12------------------------------------------------------------------------|
-----------------------------------------------------------------------------|
-----------------------------------------------------------------------------|
-----------------------------------------------------------------------------|
   2x
-----------------------------------------------------------------------------|
----------7-----------8------------10----------8-----------------------------|
--------9-----------9------------9-----------9-------------------------------|
----5-9---------5-9----------5-9---------5-9---------------------------------|
--7-----------7------------7-----------7-------------------------------------|
-----------------------------------------------------------------------------|

-----------------------------------------------------14-15------14-15-17-17b-|
--/8~--------10~--------8~---------------8~----------------------------------|
-------------------------------7^5~------------------------------------------|
-----------------------------------------------------------------------------|
-----------------------------------------------------------------------------|
-----------------------------------------------------------------------------|

----rb-12-14----------17b~---rb----(17b)---rb-15--/17~----/17^15-15---17^15^-|
-------------13~-------------------------------------------------------------|
-----------------------------------------------------------------------------|
-----------------------------------------------------------------------------|
-----------------------------------------------------------------------------|
-----------------------------------------------------------------------------|

-14^15--------15b--rb--------------------------------------------------------|
-------17^15----------15--13b~-----------------------------------------------|
-----------------------------------------------------------------------------|
-----------------------------------------------------------------------------|
-----------------------------------------------------------------------------|
-----------------------------------------------------------------------------|

Jason's solo

Em
------------------------------------------------------10-7-------------------|
----------------------------------------------------------10-/12~--10^12^10\-|
-/12~----12-14-16------------------------------------------------------------|
-------------------/14~---14-^12^14^12\10----9--9\7~-------------------------|
-----------------------------------------------------------------------------|
-----------------------------------------------------------------------------|

-----------------------------------------------------------------------------|
-8~-7~-----------------------------------------------------------------------|
-------------/12~----12-14-16------------------------------------------------|
--------------------------------/14~---14-^12^14^12\10---9--9\7~-------------|
-----------------------------------------------------------------------------|
-----------------------------------------------------------------------------|
                                   w/bar
-10-7-10--10b~---10^12^10\7--------------------------------------------------|
---------------------------10-8--7~-------7-7---8-^7^8^7---------------------|
--------------------------------------------------------9--/12~----12-14-16--|
-----------------------------------------------------------------------------|
-----------------------------------------------------------------------------|
-----------------------------------------------------------------------------|

----------------------------------------------------------------12-8^12^8----|
------------------8-----------12--13-12--10b~---------------8-13---------8---|
-14^16^14\12--\7~----7~------9--9--------------------------9--------------9--|
------------------------10--9----------------------/10~--10------------------|
-----------------------------------------------------------------------------|
-----------------------------------------------------------------------------|


----------5-8-5^8^5----------------------------------------------------------|
---------5---------5---------------------------------------------------------|
--------5-----------5-----/11~---\7--7---7-----------------------------------|
-\7~---7-------------7------------------------9~-----------------------------|
-----------------------------------------------------------------------------|
-----------------------------------------------------------------------------|

--19-15-----------15-12-------------------8-12-8--------------------------12-|
-------17--------------12---------------10------10----------------------13---|
---------16--------------12------------9----------9-------------------14-----|
-----------17--------------14--------10------------10---------------14-------|
-------------19--------------14----12----------------12---10-/-12-15---------|
-----------------------------------------------------------------------------|

--17-12--------------------15-19-15------15-19-15------15--------------------|
-------13----------------17--------17--17--------17--17----------------------|
---------14------------16------------16------------16------------------------|
-----------14--------17------------------------------------------------------|
-------------15----19--------------------------------------------------------|
-----------------------------------------------------------------------------|

--19-15-----------15-12-------------------8-12-8--------------------------12-|
-------17--------------12---------------10------10----------------------13---|
---------16--------------12------------9----------9-------------------14-----|
-----------17--------------14--------10------------10---------------14-------|
-------------19--------------14----12----------------12---10-/-12-15---------|
-----------------------------------------------------------------------------|

--17-12--------------------15-19-15------15-19-15------15--------------------|
-------13----------------17--------17--17--------17--17----------------------|
---------14------------16------------16------------16------------------------|
-----------14--------17------------------------------------------------------|
-------------15----19--------------------------------------------------------|
-----------------------------------------------------------------------------|

------------14-17-14---------------------------------------------------------|
----------15--------15--------------------12-15-12---------------------------|
--------14------------14----------------12--------12---------------11--------|
------16----------------16------------12------------12-----------12----------|
----17--------------------17-----10-14----------------14-10--9-12------------|
-----------------------------------------------------------------------------|

--------7------7-12-/15-12--/19-15------15-19-15---20-15---------------------|
-------8-8----8-------------------17--17--------17------17----------------17-|
------7------9----------------------16--------------------17------------17---|
-----9------------------------------------------------------17--------17-----|
-7-10---------------------------------------------------------19-15-19-------|
-----------------------------------------------------------------------------|

-15---17-12--------------------12-17---14-10------------------------10-14----|
-----------13----------------13-------------10--------------------10---------|
-------------14------------14-----------------11----------------11-----------|
---------------14--------14---------------------12------------12-------------|
-----------------15-12-15-------------------------12--------12---------------|
----------------------------------------------------14-10-14-----------------|

--/12-10-8-------------8-10-12-/12-13-15-13-12-------------------------------|
----------12-10-8-10-12-----------------------15-13-12-----------------------|
------------------------------------------------------14---------------------|
-----------------------------------------------------------------------------|
-----------------------------------------------------------------------------|
-----------------------------------------------------------------------------|
                 w/bar w/bar                  w/bar
-----------------------------------------------------------------------------|
-----------------------------------------------12~---12^10--10--12--14-------|
------------------/4--6--7--/9~--9^11^9--11-13-------------------------------|
-(9b)-rb9-^7^9^7-------------------------------------------------------------|
-----------------------------------------------------------------------------|
-----------------------------------------------------------------------------|

-------------------------------------------------------10b~------------------|
--15^10---10----------------------------10b~---------------------------------|
-------11---11---11----------------------------------------------------------|
--------------12---12---/12~----/9~-9-9-------/9~--9-9-----------------------|
---------------------12------------------------------------------------------|
-----------------------------------------------------------------------------|

------------12-17-12-------------------14-17---19-16------16------14b---rb12-|
----------14--------14---------------15-------------17--17-------------------|
--------14------------14-----------14-----------------16---------------------|
------14----------------14-------16------------------------------------------|
-12-16--------------------16---17--------------------------------------------|
-----------------------------------------------------------------------------|


---12b~----------------------------------------------------------------------|
-----------------------------------------------------------------------------|
-----------------------------------------------------------------------------|
-----------------------------------------------------------------------------|
-----------------------------------------------------------------------------|
-----------------------------------------------------------------------------|
comments
We did not receive enough feedback on this tab! Please rate:
1 2 3 4 5
1 comment total.
0 reply
Carlos Again wrote on January 24 2010, 06:03 am

badass song

I want to post or [tab]
guest
You may want to rate the tab now too:
select rating
Please do not post tabs as comments. Select "correction" instead!