Oops, an error
Loading. Please wait.

You Are Tab

5,142 views 9 this week
1 commentread comment
1 2 3 4 5
excellent!
x 6
add to favorites launch autoscroll
font size
0
reset
Autoscroll
+/-
esc
set tempo
stop
Contributor
WARNING: You are trying to view
                                    content from Ultimate-Guitar.com
                                    in an unauthorized application,
                                    which is prohibited.

                                    Please use an official Ultimate
                                    Guitar Tabs application for iPhone,
                                    iPad or Android to access legitimate
                                    chords, guitar, bass, and drum tabs
                                    from Ultimate-Guitar.com database.

                                    Type "ultimate guitar tabs" in Apple
                                    App Store's or Android Market's
                                    search to find the application.
Jason Castro - You Are


Capo 5 (Super high, so I usually capo the first or second fret)


The guitar accompaniment for this song is fingerpicked. If you want to add some dynamics 
it works well to strum during the later choruses. The chords used in the song are as follows:

    (G)   (G/F#) (Em7)   (D)   (C2) (Dsus4)
e|---3------3------3------x------3-----10-----|
B|---3------3------3------3------3------8-----|
G|---0------0------0------2------0------0-----|
D|---0------0------2------0------2------0-----|
A|---2------x------2-----(0)-----3------9-----|
E|---3------2------0-------------------10-----|


Intro:

     (G)             (G/F#)          (Em7)           (D)
e|-------------------------------------------------------------------------|
B|--------3-------3-------3-------3-------3-------3-------3-------3--------|
G|------0---0---0---0---0---0---0---0---0---0---0---0---2---2---2---0------|
D|----------------------------------------------------0-------0------------|
A|-------------------------------------------------------------------------|
E|----3-------3-------2-------2-------0-------0----------------------------|


Verses:

     (G)             (G/F#)          (Em7)           (D)
e|-------------------------------------------------------------------------|
B|--------3-------3-------3-------3-------3-------3-------3-------3--------|
G|------0---0---0---0---0---0---0---0---0---0---0---0---2---2---2---2------|
D|----------------------------------------------------0-------0------------|
A|-------------------------------------------------------------------------|
E|----3-------3-------2-------2-------0-------0----------------------------|
             (Looking for meaning, looking for love…)

     (Cadd9)         (G)             (D)
e|-------------------------------------------------------------------------|
B|--------3-------3-------3-------3-------3-------3-------3-------3--------|
G|------0---0---0---0---0---0---0---0---2---2---2---2---2---2---2---0------|
D|------------------------------------0-------0-------0-------0------------|
A|----3-------3------------------------------------------------------------|
E|--------------------3-------3--------------------------------------------|

x2


Choruses:

     (Cadd9)         (G)             (D)             (Em7)
e|-------------------------------------------------------------------------|
B|--------3-------3-------3-------3-------3-------3-------3-------3--------|
G|------0---0---0---0---0---0---0---0---2---2---2---2---0---0---0---0------|
D|------------------------------------0-------0----------------------------|
A|----3-------3------------------------------------------------------------|
E|--------------------3-------3-----------------------0-------0------------|

     (Cadd9)         (G)             (D)
e|-------------------------------------------------------------------------|
B|--------3-------3-------3-------3----------------------------------------|
G|------0---0---0---0---0---0---0---0--------------------------------------|
D|------------------------------------0...---------------------------------|
A|----3-------3------------------------------------------------------------|
E|--------------------3-------3--------------------------------------------|
                                     (Let ring...)

Bridge:

     (Cadd9)         (Em7)           (D)
e|-------------------------------------------------------------------------|
B|--------3-------3-------0-------0-------3-------3-------3-------3--------|
G|------0---0---0---0---0---0---0---0---2---2---2---2---2---2---2---0------|
D|------------------------------------0-------0-------0-------0------------|
A|----3-------3------------------------------------------------------------|
E|--------------------0-------0--------------------------------------------|

     (Cadd9)         (Em7)           (D)                             (Cadd9)
e|--------------------------------------------------------------------3----|
B|--------3-------3-------0-------0-------3-------3-------3-------3---3----|
G|------0---0---0---0---0---0---0---0---2---2---2---2---2---2---2---0-0----|
D|------------------------------------0-------0-------0-------0-------2----|
A|----3-------3-------------------------------------------------------3----|
E|--------------------0-------0--------------------------------------------|
                                                             (You are Life…)

End with the chord:

    (Dsus)
e|----10-----|
B|-----8-----|
G|-----0-----|
D|-----0-----|
A|-----9-----|
E|----10-----|


Lyrics:

Looking for meaning
Looking for love
Looking for something to
Never give up
You are the One
You are the One

Looking for purpose in all
Of the pain
Looking for someone to
Hold in the rain
You are the One
You are the One

You are life more beautiful
You are love more powerful
You are the light that always shines
You are the One

You came in my darkness
You came in my night
You came without warning
You came to my side
You are the One
You are the One

There’s no before You
There’s no too late
There’s no without You
There’s only today
You are the One
You are the One

You are life more beautiful
You are love more powerful
You are the light that always shines
You are the One

You are the song I wanna sing
You are here
You are everything
You are the light that always shines
You are the One

And I will never move on from You
Oh oh
I will never move on from You
Yeah

You are life more beautiful
You are love more powerful
You are the light that always shines
You are the One

You are the song I gotta sing
You are here
You are everything
You are the light that always shines
You are the One
You are the One
You are the One
You are the light that shines
You are the One

And I will never move on from You
I will never move on from You


There it is! Hope y'all enjoy it. God bless! =)
1 comment total.
0 reply
DigitalPimpSlap wrote on April 19 2011, 06:09 pm

perfecto, 5*

I want to post or [tab]
guest
You may want to rate the tab now too:
select rating
Please do not post tabs as comments. Select "correction" instead!