Oops, an error
Loading. Please wait.

Air Blower Scatterbrain Tab

5,867 views 9 this week
no commentswrite comment
1 2 3 4 5
please rate
add to favorites launch autoscroll
font size
0
reset
Autoscroll
+/-
esc
set tempo
stop
WARNING: You are trying to view
                                    content from Ultimate-Guitar.com
                                    in an unauthorized application,
                                    which is prohibited.

                                    Please use an official Ultimate
                                    Guitar Tabs application for iPhone,
                                    iPad or Android to access legitimate
                                    chords, guitar, bass, and drum tabs
                                    from Ultimate-Guitar.com database.

                                    Type "ultimate guitar tabs" in Apple
                                    App Store's or Android Market's
                                    search to find the application.
Artist: Jeff Beck
Song: Air Blower/Scatterbrain
Album: Blow by Blow


Jeff Beck


                 
                                                  |-3-| |--3--|   
     Q.                                           S S S E  E  E   
E||--------------------------------------------------------------|
B||-----------------------------------------------------------2--|
G||-----------------------------------------------------1--3-----|
D||-------------------------------------------------3-3----------|
A||--------------------------------------------------------------|
E||--------------------------------------------------------------|


  H        H        E     Q    S S T T T T Q     Q.      
-----------------------|-------4---4---4----------------|
-----------------------|---------6---------6~-----------|
--3--------------------|--------------------------------|
-----------------------|--------------------------------|
-----------------------|--------------------------------|
-----------------------|--------------------------------|


        |---3--|                
  E.  S Q      E   E  H         
-------------------------------|
--------4S----16---------------|
------2-----------14-----------|
-------------------------------|
-------------------------------|
-------------------------------|


  E.   T  T  S S  T T  T T  T T  T T  S S Q.      
-------------------------------------------------|
------16----16--------16-------------16----------|
---------14------14--------14---14---------------|
-------------------------------------------------|
-------------------------------------------------|
-------------------------------------------------|


  E.   T  T  T  T  T  T  X   S.X  T  S     T  S  S  T S.  Q     
------------------10-12-12S-14---------------------------------|
---------------10----------------10----------------------------|
------------11----------------------12-10g11-------------------|
---------12----------------------------------12----------12----|
------12----------------------------------------12-10-9--------|
---------------------------------------------------------------|


  Q     S  S  S  S  S  S  S  S  S  S  S  S  S  S  
----------------------------------10----10----10-|
-------------------------10-12-10----10----10----|
----------11----11-12-11-------------------------|
-------12----12----------------------------------|
-------------------------------------------------|
-------------------------------------------------|


      H        E.   E      T T  T  T  T  T  T T     S  
--10g12--------L---14pbr--12---16-14-12---------------|
--10g12--------L------------------------12------------|
-------------------------------------------13---12g13-|
------------------------------------------------------|
------------------------------------------------------|
------------------------------------------------------|


   Q    E.   S     S  S  S     S  S     S  S  T T E   
-----------------------------------------------------|
---------------11g12----14-11g12----13g14-12---------|
--------x------12g13----14-12g13----13g14-13---------|
--14--------14-------14----------14----------14------|
-----------------------------------------------------|
-----------------------------------------------------|


  ^                                                                         
                                                               |3| |3|      
  H         E  E    S  E    S E     H          S S T  T  S S S S T S T S S  
--2~--------L--------------------|-----------------------------------------|
--3~--------L--------------------|-----------------------------------------|
--4~--------L--------------------|-----------------------------------------|
---------------------------------|-------------------------5-5-7-8-7-5-7-5-|
------------------5g7p-5---------|---------------5-5h-7p-5-----------------|
--------------------------5g7-3--|-----------5g7---------------------------|


   Q.         Q.           Q.        E.  E   T  T  
------------------------|-------------------------|
--13pbr------10pbr------|--7pbr-------------------|
------------------------|-------------------------|
------------------------|-------------------18-20-|
------------------------|-------------------------|
------------------------|-------------------------|


   |-----5-----|                                |--3--|     
   S  S  S  S  S  S  S. E   S  S  S.  S  S  S   S  S  S  S  
-----------------------18--18-21-21b-21-18-21b-21-18----18-|
--------18-------18-21-------------------------------21----|
--18-20----18-20-------------------------------------------|
-----------------------------------------------------------|
-----------------------------------------------------------|
-----------------------------------------------------------|


   S  H         H        S  
---L-----------------------|
-----21b-------------------|
---------------------------|
---------------------------|
---------------------------|
---------------------------|


     |3|      |--3--|  |--3--|  |--3--|  |--3--|                                
  E  S T T T  T  T  T  T  T  T  T  T  T  T  T  T  T  T  T  T  T  T  T  T  T  T  
--------------------------------------------------------------------------------
-----------9p-6h-9p-6h-9p-6h-9p-6h-9p-6h-9p-6h-9p-6h-9p-6h-9p-6h-9p-6h-9p-6h-9p-
---------8----------------------------------------------------------------------
-------7------------------------------------------------------------------------
--------------------------------------------------------------------------------
--------------------------------------------------------------------------------


  Q    E.  S T T T T S S Q.      
--------------------------------|
--------------------------------|
-------------8-8-8-8------------|
-----------7---------7----------|
--------------------------------|
--------------------------------|


  Q    S  T  T  T T  T X  X   S  S  S  S  S  S S  S S  S    
--------------------10---12S-14-12-10----------------------|
---------------10---------------------12-10----------------|
------------11------------------------------10-9----9b-9br-|
---------12--------------------------------------12--------|
-----------------------------------------------------------|
-----------------------------------------------------------|


  S  E.   Q    H        E        S S E    S S E   S S  S S S S S S S S   
---------------------------|------------6g7-7----10----9---7------------|
---------------------------|--9g10-9----8g9-9----12---10---9---------7b-|
--L------------------------|---8g9-9-------------------------9---7------|
----12----L----------------|-----------------------------------9--------|
---------------------------|--------------------------------------------|
---------------------------|--------------------------------------------|


  Q    H        Q.          E.  S S S S   S S   S S Q.     S  
-----------------------|-------------------------------------|
-----------------------|--5g7--------------------------------|
--9--------------------|----------4-5-4-4g7-5-7g9-7----------|
-----------------------|--------4----------------------------|
-----------------------|-------------------------------------|
-----------------------|-------------------------------------|


  Q     T   T   T  T  T T  T T  T   T   T  T  T  T   T  T  T   T X     S E.  T. 
-------------------------------------------------------15----------17g19--------
----------------------------------------------------------18p-15----------------
-------------------------------14h-15p-14----17-15h-16--------------------------
-------14h-15p-14----14---17--------------17------------------------------------
------------------17------------------------------------------------------------
--------------------------------------------------------------------------------


   Q.         Q.           Q.        Q.        
------------------------|---------------------|
--13pbr------10pbr------|--7pbr------4br------|
------------------------|---------------------|
------------------------|---------------------|
------------------------|---------------------|
------------------------|---------------------|


  E.  T T T T T T T T T T T T T T T T T T  E  S  S  
----------------------------------------------9----|
------6-------6-------6-------6-------6-8b-L----11-|
--------8-6-----8-6-----8-6-----8-6----------------|
------------8-------8-------8-------8--------------|
---------------------------------------------------|
---------------------------------------------------|


   |---------3---------|   |---3---|   |---3---|   |---3---|   |---3---|   |---3
   E   E   T   T   T   T   T   T   T   T   T   T   T   T   T   T   T   T   T   T
--13--12--11h-12p-11h-12p-11h-12p-11h-12p-11h-12p-11h-12p-11h-12p-11h-12p-11h-12
--------------------------------------------------------------------------------
--------------------------------------------------------------------------------
--------------------------------------------------------------------------------
--------------------------------------------------------------------------------
--------------------------------------------------------------------------------


  W                   W                   W                   W                 
-------------------|-------------------|-------------------|-------------------|
-------------------|-------------------|-------------------|-------------------|
-------------------|-------------------|-------------------|-------------------|
-------------------|-------------------|-------------------|-------------------|
-------------------|-------------------|-------------------|-------------------|
-------------------|-------------------|-------------------|-------------------|


  W                   W                   W                E   
-------------------|-------------------|----------------------|
-------------------|-------------------|----------------------|
-------------------|-------------------|----------------------|
-------------------|-------------------|----------------------|
-------------------|-------------------|----------------------|
-------------------|-------------------|----------------------|


  W                E     W                E     W                E   
----------------------|----------------------|----------------------|
----------------------|----------------------|----------------------|
----------------------|----------------------|----------------------|
----------------------|----------------------|----------------------|
----------------------|----------------------|----------------------|
----------------------|----------------------|----------------------|


  S  S  S S  S S  S S  S S S S S  S S S  S S  
---------------------------------------------|
---------------------------------------------|
---------------------------------------------|
--------------------8----8-9-8-9-11-9-8------|
--8h-9p-8-9-11-9-11---11----------------11-9-|
---------------------------------------------|


  S S S S  S S  S S  S S S S S  S S S  S S  
-------------------------------------------|
-------------------------------------------|
-------------------------------------------|
------------------8----8-9-8-9-11-9-8------|
--8-9-8-9-11-9-11---11----------------11-9-|
-------------------------------------------|


  S S S S  S S  S S  S S S S S  S S S  S S  
-------------------------------------------|
-------------------------------------------|
-------------------------------------------|
------------------8----8-9-8-9-11-9-8------|
--8-9-8-9-11-9-11---11----------------11-9-|
-------------------------------------------|


  S S S S  S S  S S  S S S S S  S S S  S  S  
--------------------------------------------|
--------------------------------------------|
--------------------------------------------|
------------------8----8-9-8-9-11-9-8-------|
--8-9-8-9-11-9-11---11----------------11-10-|
--------------------------------------------|


  S  S S  S  S  S  S S  S S  S S  S  S  S S  S  S  
--------------------------------------------------|
--------------------------------------------------|
--------------------------------------------------|
---------------------9----9-10-9-10-12-10-9-------|
--9-10-9-10-12-10-12---12-------------------12-10-|
--------------------------------------------------|


  S  S S  S  S  S  S S  S S  S S  S  S  S S  S  S  
--------------------------------------------------|
--------------------------------------------------|
--------------------------------------------------|
---------------------9----9-10-9-10-12-10-9-------|
--9-10-9-10-12-10-12---12-------------------12-11-|
--------------------------------------------------|


   S  S  S  S  S  S  S  S  S  S  S  S  S  S  S  S  S  S  
--------------------------------------------------------|
--------------------------------------------------------|
--------------------------------------------------------|
-----------------------11----11-12-11-12-14-12-11-------|
--11-12-11-12-14-12-14----14----------------------14-12-|
--------------------------------------------------------|


   S  S  S  S  S  S  S  S  S  S  S  S  S  S  S  S  S  S  
--------------------------------------------------------|
--------------------------------------------------------|
--------------------------------------------------------|
-----------------------11----11-12-11-12-14-12-11-------|
--11-12-11-12-14-12-14----14----------------------14-12-|
--------------------------------------------------------|


  S  S S  S  S  S  S S  S S  S S  S  S  S S  S  S  
--------------------------------------------------|
--------------------------------------------------|
---------------------9----9-11-9-11-12-11-9-------|
--9-11-9-11-12-11-12---12-------------------12-11-|
--------------------------------------------------|
--------------------------------------------------|


  S  S S  S  S  S  S S  S S  S S  S  S  S S  S  S     Q.       Q.       
--------------------------------------------------|--------------------|
--------------------------------------------------|--15-------12-------|
---------------------9----9-11-9-11-12-11-9-------|--17b------14b------|
--9-11-9-11-12-11-12---12-------------------12-11-|--------------------|
--------------------------------------------------|--------------------|
--------------------------------------------------|--------------------|


   Q.      Q.         S S S S  S S  S S  S S S S S  S S S  S S  
-------------------|-------------------------------------------|
---9-------5-------|-------------------------------------------|
--11b------7b------|-------------------------------------------|
-------------------|------------------8----8-9-8-9-11-9-8------|
-------------------|--8-9-8-9-11-9-11---11----------------11-9-|
-------------------|-------------------------------------------|


  S S S S  S S  S S  S S S S S  S S S  S S  
-------------------------------------------|
-------------------------------------------|
-------------------------------------------|
------------------8----8-9-8-9-11-9-8------|
--8-9-8-9-11-9-11---11----------------11-9-|
-------------------------------------------|


  S S S S  S S  S S  S S S S S  S S S  S S  
-------------------------------------------|
-------------------------------------------|
-------------------------------------------|
------------------8----8-9-8-9-11-9-8------|
--8-9-8-9-11-9-11---11----------------11-9-|
-------------------------------------------|


  S S S S  S S  S S  S S S S S  S S S  S  S  
--------------------------------------------|
--------------------------------------------|
--------------------------------------------|
------------------8----8-9-8-9-11-9-8-------|
--8-9-8-9-11-9-11---11----------------11-10-|
--------------------------------------------|


  S  S S  S  S  S  S S  S S  S S  S  S  S S  S  S  
--------------------------------------------------|
--------------------------------------------------|
--------------------------------------------------|
---------------------9----9-10-9-10-12-10-9-------|
--9-10-9-10-12-10-12---12-------------------12-10-|
--------------------------------------------------|


  S  S S  S  S  S  S S  S S  S S  S  S  S S  S  S  
--------------------------------------------------|
--------------------------------------------------|
--------------------------------------------------|
---------------------9----9-10-9-10-12-10-9-------|
--9-10-9-10-12-10-12---12-------------------12-11-|
--------------------------------------------------|


   S  S  S  S  S  S  S  S  S  S  S  S  S  S  S  S  S  S  
--------------------------------------------------------|
--------------------------------------------------------|
--------------------------------------------------------|
-----------------------11----11-12-11-12-14-12-11-------|
--11-12-11-12-14-12-14----14----------------------14-12-|
--------------------------------------------------------|


   S  S  S  S  S  S  S  S  S  S  S  S  S  S  S  S  S  S  
--------------------------------------------------------|
--------------------------------------------------------|
--------------------------------------------------------|
-----------------------11----11-12-11-12-14-12-11-------|
--11-12-11-12-14-12-14----14----------------------14-12-|
--------------------------------------------------------|


  S  S S  S  S  S  S S  S S  S S  S  S  S S  S  S  
--------------------------------------------------|
--------------------------------------------------|
---------------------9----9-11-9-11-12-11-9-------|
--9-11-9-11-12-11-12---12-------------------12-11-|
--------------------------------------------------|
--------------------------------------------------|


  S  S S  S  S  S  S S  S S  S S  S  S  S S  S  S     Q.       Q.       
--------------------------------------------------|--------------------|
--------------------------------------------------|--15-------12-------|
---------------------9----9-11-9-11-12-11-9-------|--17b------14b------|
--9-11-9-11-12-11-12---12-------------------12-11-|--------------------|
--------------------------------------------------|--------------------|
--------------------------------------------------|--------------------|


   Q.      Q.         Q       H.              E     E  E  Q    Q     S S  
-------------------|-----------------------|-----------------------------|
---9-------5-------|-----------------------|-----------------------------|
--11b------7b------|--8pbr-----------------|--8pbr--6--8--8----6b--------|
-------------------|-----------------------|-------------------------8-6-|
-------------------|-----------------------|-----------------------------|
-------------------|-----------------------|-----------------------------|


  S S E  H        E.  S    S S S S E  E  S S S E  S S S  
------------------------|-------------------------------|
------------------------|-------------------------------|
----6-------------------|----6--------------------------|
--8---8---------------6-|--8---8-6-6-----8-6-8-8--6-8-6-|
------------------------|-------------------------------|
------------------------|-------------------------------|


                             |-----3-----|     |-----3-----|     
  E  H.            S  S      Q     Q     Q     Q     Q     Q     
-------------------------|--------------------------------------|
---------------------14S-|--16----------16----------16----------|
--8----------------------|--------14----------14----------14----|
-----7~------------------|--------------------------------------|
-------------------------|--------------------------------------|
-------------------------|--------------------------------------|


   E      E    H        E   E      
----------------------------------|
--16pbr--------------------16pbr--|
---------14~---L------------------|
----------------------------------|
----------------------------------|
----------------------------------|


   E   E   E      S  E      S  E      E.    S    Q    S S S E.  E  E  S S  
----------------------------------------------|---------------------------|
---L------16pbr-----16pbr-----16pbr-----------|---------------------------|
------14---------14--------14--------14S~---x-|-----------7-----7-----7---|
----------------------------------------------|-------7-9-----------------|
----------------------------------------------|---------------------------|
----------------------------------------------|---------------------------|


  E    S S S S Q    S S S S S S    S S S S S S S S S S S S S S S  S  
--------------------------------|-----------------------------------|
--------------------------------|-----------------------------------|
--9br--7---x-9-7----7-9-7---7-9-|--7---7-9-7---7-9-7---7-9-7---7-10-|
---------9----------------9-----|----9-------9-------9-------9------|
--------------------------------|-----------------------------------|
--------------------------------|-----------------------------------|


       |-3|                                                         
     S E  S S Q    E.  S S T S T S      E   E.   E.   E.   E.   E   
------------------------------------|------------------------------|
-------------------------7----------|------12---14--------12---14--|
--10g9-7----9-7----L---9---9-7---9S-|--13------------13------------|
----------9-------------------------|------------------------------|
------------------------------------|------------------------------|
------------------------------------|------------------------------|


   H            Q.      S  S     S  S  S S  S  S  S  S  S  S  S S  E    S  S   
-----------------------------|--12---------12-------12-------12--------12-----|
--14pbr--------12------12-14-|-----15-12------15-12----15-12------15b-----15b-|
-----------------------------|------------------------------------------------|
-----------------------------|------------------------------------------------|
-----------------------------|------------------------------------------------|
-----------------------------|------------------------------------------------|


   S  S  E    S  E    S  E    S  S   S  S   S  S  
-----12------12------12------12-----12-----------|
---L----15b-----15b-----15b-----15b-----------15-|
---------------------------------------13S-16----|
-------------------------------------------------|
-------------------------------------------------|
-------------------------------------------------|


   Q     S  S  S  S  Q.      S  S     S  S  S  S  S  S  H         S S  
----------------------------------|-----------------------------------|
---L-----L-17----15--L------17----|--15-17----15-17----15--------17---|
--------------16---------------16-|--------16-------16----------------|
----------------------------------|-----------------------------------|
----------------------------------|-----------------------------------|
----------------------------------|-----------------------------------|


   |--3--|     |--3--|     |--3--|     |--3--|     |--3--|     |--|  
   S  S  S  S  S  S  S  S  S  S  S  S  S  S  S  S  S  S  S  S  S  T  
--19-17-15----19-17-15----19-17-15----19-17-15----19-17-15----18-17-|
-----------15----------15----------15----------15----------15-------|
--------------------------------------------------------------------|
--------------------------------------------------------------------|
--------------------------------------------------------------------|
--------------------------------------------------------------------|


   |--|     |--3--|     |--3--|     |--3--|                                     
   T  S  S  S  S  S  S  S  S  S  S  S  S  S  E   S  S  E      Q.       Q.       
---L-15----18-17-15----18-17-15----18-17-15---------------|--------------------|
--------15----------15----------15----------15--17-15-----|--15-------12-------|
------------------------------------------------------16--|--17b------14b------|
----------------------------------------------------------|--------------------|
----------------------------------------------------------|--------------------|
----------------------------------------------------------|--------------------|


   Q.      Q.          E  E     S S S. T E   S S S S S S  
--------------------|------------------------------------|
---9-------5~-------|------------------------------------|
--11b------7b~------|-----8pbr--6------------------------|
--------------------|-------------8-6--------------------|
--------------------|--------------------6b--6-4---------|
--------------------|------------------------------6-4-4-|


  S S S S Q.       E  E  E     H.              E  S S    E  H        S S E  E   
----------------------------|-------------------------|------------------------|
----------------------------|-------------------------|------------------------|
----------------------------|--6pbr------------L------|------------------------|
----------------------6--8--|---------------------8-6-|--8-----------6---8--6--|
--------4--------6g8--------|-------------------------|------------------------|
--6---6---------------------|-------------------------|------------------------|


                   |-3-|                      |-3-|  
  H.            E  S S S    E  E  H        E  S S S  
-------------------------|--------------------------|
-------------------------|--------------------------|
--8b---------------8-6-0-|-----8--------------8-6-0-|
-------------------------|--7-----7-----------------|
-------------------------|--------------------------|
-------------------------|--------------------------|


  S S S S S S S S S S S S Q         H.             E  S S  
---------------------------------|------------------------|
---------------------------------|------------------------|
------8-------8-----8-----8br----|------------------------|
--7-------7-----7-----7----------|--7br------------L--7---|
---------------------------------|------------------------|
---------------------------------|------------------------|


  S S S S H.               Q       E    E    E     Q    S S  
------------------------|-----------------------------------|
------------------------|-----------------------------------|
------7---9b------------|--9pbr----9pb-----<>9pbr--7----9---|
--7-9-------------------|-----------------------------------|
------------------------|-----------------------------------|
------------------------|-----------------------------------|


  E     E  S S S S S S E  S S S  S    E  E    E  Q    E  S S S S  
-----------------------------------|-----------------------------|
-----------------------------------|-----------------------------|
--9pbr--7--9-------x-9-7-----------|---------------------7---9---|
---------------9----------9--------|-------------7----9----------|
------------------------------9S-7-|--5--7--7g9------------------|
-----------------------------------|-----------------------------|


  S  S S S  H.               E  H        S  S S S  S S  
--------------------------|----------------------------|
--------------------------|----------------------------|
-------9---12b------------|--9--9-------------9---11---|
--9-11--------------------|--------------9-11----------|
--------------------------|----------------------------|
--------------------------|----------------------------|


   H          E   Q       E     H         E   S  S  S S  S S  
-----------------------------|-------------------------------|
-------------12-----------x--|-------------------------------|
--12b------------12pbr-------|--9~--------L--------12--------|
-----------------------------|---------------12-14------14---|
-----------------------------|-------------------------------|
-----------------------------|-------------------------------|


   Q.       Q.       Q         E  Q.       Q.       E     
---------------------------|-----------------------------|
--15b----------------------|-----------------------------|
-----------14b------12b----|---L--9br------7br-----------|
---------------------------|------------------------7br--|
---------------------------|-----------------------------|
---------------------------|-----------------------------|


                  |--3--|            
  Q    S S S E.   S  S  S  S S  S S  
-----------------18-17-15------15---|
--------------------------18--------|
-----------7------------------------|
--L----7-9--------------------------|
------------------------------------|
------------------------------------|


        |--3-|  |--3-|  |--3-|  |--3-|  |--3-|  |--3-|                          
   S S  S  S S  S  S S  S  S S  S  S S  S  S S  S  S S E      Q.       Q.       
--15------------------------------------------------------|--------------------|
-------17-15-0--------------------------------------------|--15-------12-------|
---------------17-15-0---------17-15-0--------------------|--17b------14b------|
-----------------------17-15-0---------17-15-0------------|--------------------|
-----------------------------------------------17-15-0----|--------------------|
----------------------------------------------------------|--------------------|


   Q.      Q.         S S S S  S S  S S  S S S S S  S S S  S S  
-------------------|-------------------------------------------|
---9-------5-------|-------------------------------------------|
--11b------7b------|-------------------------------------------|
-------------------|------------------8----8-9-8-9-11-9-8------|
-------------------|--8-9-8-9-11-9-11---11----------------11-9-|
-------------------|-------------------------------------------|


  S S S S  S S  S S  S S S S S  S S S  S S  
-------------------------------------------|
-------------------------------------------|
-------------------------------------------|
------------------8----8-9-8-9-11-9-8------|
--8-9-8-9-11-9-11---11----------------11-9-|
-------------------------------------------|


  S S S S  S S  S S  S S S S S  S S S  S S  
-------------------------------------------|
-------------------------------------------|
-------------------------------------------|
------------------8----8-9-8-9-11-9-8------|
--8-9-8-9-11-9-11---11----------------11-9-|
-------------------------------------------|


  S S S S  S S  S S  S S S S S  S S S  S  S  
--------------------------------------------|
--------------------------------------------|
--------------------------------------------|
------------------8----8-9-8-9-11-9-8-------|
--8-9-8-9-11-9-11---11----------------11-10-|
--------------------------------------------|


  S  S S  S  S  S  S S  S S  S S  S  S  S S  S  S  
--------------------------------------------------|
--------------------------------------------------|
--------------------------------------------------|
---------------------9----9-10-9-10-12-10-9-------|
--9-10-9-10-12-10-12---12-------------------12-10-|
--------------------------------------------------|


  S  S S  S  S  S  S S  S S  S S  S  S  S S  S  S  
--------------------------------------------------|
--------------------------------------------------|
--------------------------------------------------|
---------------------9----9-10-9-10-12-10-9-------|
--9-10-9-10-12-10-12---12-------------------12-11-|
--------------------------------------------------|


   S  S  S  S  S  S  S  S  S  S  S  S  S  S  S  S  S  S  
--------------------------------------------------------|
--------------------------------------------------------|
--------------------------------------------------------|
-----------------------11----11-12-11-12-14-12-11-------|
--11-12-11-12-14-12-14----14----------------------14-12-|
--------------------------------------------------------|


   S  S  S  S  S  S  S  S  S  S  S  S  S  S  S  S  S  S  
--------------------------------------------------------|
--------------------------------------------------------|
--------------------------------------------------------|
-----------------------11----11-12-11-12-14-12-11-------|
--11-12-11-12-14-12-14----14----------------------14-12-|
--------------------------------------------------------|


  S  S S  S  S  S  S S  S S  S S  S  S  S S  S  S  
--------------------------------------------------|
--------------------------------------------------|
---------------------9----9-11-9-11-12-11-9-------|
--9-11-9-11-12-11-12---12-------------------12-11-|
--------------------------------------------------|
--------------------------------------------------|


  S  S S  S  S  S  S S  S S  S S  S  S  S S  S  S     Q.        Q.        
--------------------------------------------------|----------------------|
--------------------------------------------------|----------------------|
---------------------9----9-11-9-11-12-11-9-------|--17br------14br------|
--9-11-9-11-12-11-12---12-------------------12-11-|----------------------|
--------------------------------------------------|----------------------|
--------------------------------------------------|----------------------|


   Q.       Q      S S      E  E  H.                                            
------------------------|----------------------|---------------|---------------|
---------------------4S-|--16------------------|---------------|---------------|
--11br------6br----L----|----------------------|---------------|---------------|
------------------------|----------------------|---------------|---------------|
------------------------|----------------------|---------------|---------------|
------------------------|----------------------|---------------|---------------|


---------------|---------------|---------------|---------------|---------------|
---------------|---------------|---------------|---------------|---------------|
---------------|---------------|---------------|---------------|---------------|
---------------|---------------|---------------|---------------|---------------|
---------------|---------------|---------------|---------------|---------------|
---------------|---------------|---------------|---------------|---------------|


---------------|---------------|---------------|---------------|---------------|
---------------|---------------|---------------|---------------|---------------|
---------------|---------------|---------------|---------------|---------------|
---------------|---------------|---------------|---------------|---------------|
---------------|---------------|---------------|---------------|---------------|
---------------|---------------|---------------|---------------|---------------|


---------------|---------------|---------------|---------------|---------------|
---------------|---------------|---------------|---------------|---------------|
---------------|---------------|---------------|---------------|---------------|
---------------|---------------|---------------|---------------|---------------|
---------------|---------------|---------------|---------------|---------------|
---------------|---------------|---------------|---------------|---------------|


---------------|---------------|---------------|---------------|---------------|
---------------|---------------|---------------|---------------|---------------|
---------------|---------------|---------------|---------------|---------------|
---------------|---------------|---------------|---------------|---------------|
---------------|---------------|---------------|---------------|---------------|
---------------|---------------|---------------|---------------|---------------|


---------------|---------------|---------------|---------------|---------------|
---------------|---------------|---------------|---------------|---------------|
---------------|---------------|---------------|---------------|---------------|
---------------|---------------|---------------|---------------|---------------|
---------------|---------------|---------------|---------------|---------------|
---------------|---------------|---------------|---------------|---------------|


---------------|---------------|---------------|---------------|---------------|
---------------|---------------|---------------|---------------|---------------|
---------------|---------------|---------------|---------------|---------------|
---------------|---------------|---------------|---------------|---------------|
---------------|---------------|---------------|---------------|---------------|
---------------|---------------|---------------|---------------|---------------|


---------------|---------------|---------------|---------------|---------------|
---------------|---------------|---------------|---------------|---------------|
---------------|---------------|---------------|---------------|---------------|
---------------|---------------|---------------|---------------|---------------|
---------------|---------------|---------------|---------------|---------------|
---------------|---------------|---------------|---------------|---------------|


---------------|---------------|---------------|---------------|---------------|
---------------|---------------|---------------|---------------|---------------|
---------------|---------------|---------------|---------------|---------------|
---------------|---------------|---------------|---------------|---------------|
---------------|---------------|---------------|---------------|---------------|
---------------|---------------|---------------|---------------|---------------|


                  S S S S  S S  S S  S S S S S  S S S  S S  
---------------|-------------------------------------------|
---------------|-------------------------------------------|
---------------|-------------------------------------------|
---------------|------------------8----8-9-8-9-11-9-8------|
---------------|--8-9-8-9-11-9-11---11----------------11-9-|
---------------|-------------------------------------------|


  S S S S  S S  S S  S S S S S  S S S  S S  
-------------------------------------------|
-------------------------------------------|
-------------------------------------------|
------------------8----8-9-8-9-11-9-8------|
--8-9-8-9-11-9-11---11----------------11-9-|
-------------------------------------------|


  S S S S  S S  S S  S S S S S  S S S  S S  
-------------------------------------------|
-------------------------------------------|
-------------------------------------------|
------------------8----8-9-8-9-11-9-8------|
--8-9-8-9-11-9-11---11----------------11-9-|
-------------------------------------------|


  S S S S  S S  S S  S S S S S  S S S  S  S  
--------------------------------------------|
--------------------------------------------|
--------------------------------------------|
------------------8----8-9-8-9-11-9-8-------|
--8-9-8-9-11-9-11---11----------------11-10-|
--------------------------------------------|


  S  S S  S  S  S  S S  S S  S S  S  S  S S  S  S  
--------------------------------------------------|
--------------------------------------------------|
--------------------------------------------------|
---------------------9----9-10-9-10-12-10-9-------|
--9-10-9-10-12-10-12---12-------------------12-10-|
--------------------------------------------------|


  S  S S  S  S  S  S S  S S  S S  S  S  S S  S  S  
--------------------------------------------------|
--------------------------------------------------|
--------------------------------------------------|
---------------------9----9-10-9-10-12-10-9-------|
--9-10-9-10-12-10-12---12-------------------12-11-|
--------------------------------------------------|


   S  S  S  S  S  S  S  S  S  S  S  S  S  S  S  S  S  S  
--------------------------------------------------------|
--------------------------------------------------------|
--------------------------------------------------------|
-----------------------11----11-12-11-12-14-12-11-------|
--11-12-11-12-14-12-14----14----------------------14-12-|
--------------------------------------------------------|


   S  S  S  S  S  S  S  S  S  S  S  S  S  S  S  S  S  S  
--------------------------------------------------------|
--------------------------------------------------------|
--------------------------------------------------------|
-----------------------11----11-12-11-12-14-12-11-------|
--11-12-11-12-14-12-14----14----------------------14-12-|
--------------------------------------------------------|


  S  S S  S  S  S  S S  S S  S S  S  S  S S  S  S  
--------------------------------------------------|
--------------------------------------------------|
---------------------9----9-11-9-11-12-11-9-------|
--9-11-9-11-12-11-12---12-------------------12-11-|
--------------------------------------------------|
--------------------------------------------------|


  S  S S  S  S  S  S S  S S  S S  S  S  S S  S  S     Q.        Q.        
--------------------------------------------------|----------------------|
--------------------------------------------------|----------------------|
---------------------9----9-11-9-11-12-11-9-------|--17br------14br------|
--9-11-9-11-12-11-12---12-------------------12-11-|----------------------|
--------------------------------------------------|----------------------|
--------------------------------------------------|----------------------|


   Q.       Q.          E   S  S  S S  S  S  E  Q     S  S  
---------------------|-------------------------------------|
---------------------|-------------------21b-L-------------|
--11br------6br------|--------18-20---18----------------18-|
---------------------|-----20------------------------20----|
---------------------|-------------------------------------|
---------------------|-------------------------------------|


   S  S  S  S   E  Q     S  E    S  S  S   
--------------------------------------21b-|
-----------21b--L---------------18-18-----|
--20-20-18-----------------18b------------|
------------------------20----------------|
------------------------------------------|
------------------------------------------|


                                      |--3--|  |--|   
   S  S    S  S  S  S  S  S  Q        S  S  S  S  E   
---L-21pb-21-21-18-18--------------------------------|
----------------------21-21-21pbr-------18-----------|
-------------------------------------18----18-17-----|
-------------------------------------------------20--|
-----------------------------------------------------|
-----------------------------------------------------|


   S  S  S  S  E   Q      S  S  E   E      Q        Q        Q       E   E    
---------------------------------------|-------------------------------------|
--------------20-----------------------|-------------------------------------|
--17-20-18--------18br----L--------18--|-------------------------------------|
-----------20---------------20-18------|--20pbr----18pbr----15br----13--11S--|
---------------------------------------|-------------------------------------|
---------------------------------------|-------------------------------------|


  S S E  S S S S S S  S S S S S S    S S E  Q      H         
----------------------------------|-------------------------|
----------------------------------|-------------------------|
----------------------------6-8-6-|----8----6br----L--------|
--8-6-6-----------------6-8-------|--8----------------------|
---------------4-5-6S-8-----------|-------------------------|
---------4-5-6--------------------|-------------------------|


    Q    E  E  S S S S S S S S E     Q     Q    S S S S S S S S E   
----------------------------------|--------------------------------|
----------------------------------|--------------------------------|
----------------------------------|--6b----------------------------|
---------8-----8-x-6-x-8-x-6-x-8--|--------8----8-x-6-x-8-x-6-x-8--|
----------------------------------|--------------------------------|
--4g6-----------------------------|--------------------------------|


  Q     Q    S S S S S S S S E     Q     Q    S S S S S S S S E   
--------------------------------|--------------------------------|
--------------------------------|--------------------------------|
--------------------------------|--8b----6-----------------------|
-------------8-x-6-x-8-x-6-x-8--|-------------8-x-6-x-8-x-6-x-8--|
--------------------------------|--------------------------------|
--9b----6-----------------------|--------------------------------|


  Q     Q    S S S S S S S S E     Q    E  E  S S S S S S S S E   
--------------------------------|--------------------------------|
--9b----9-----------------------|--------------------------------|
--------------------------------|--------------------------------|
-------------8-x-6-x-8-x-6-x-8--|-------8-----8-x-6-x-8-x-6-x-8--|
--------------------------------|--------------------------------|
--------------------------------|--6-----------------------------|


  Q     Q    S S S S S S S S E     Q     Q    S S S S S S S S E   
--------------------------------|--------------------------------|
--------------------------------|--------------------------------|
--6b----------------------------|--------------------------------|
--------8----8-x-6-x-8-x-6-x-8--|-------------8-x-6-x-8-x-6-x-8--|
--------------------------------|--4b----------------------------|
--------------------------------|--------6-----------------------|


  Q     Q    S S S S S S S S E     Q     Q    S S S S S S S S E   
--------------------------------|--------------------------------|
--------------------------------|--9b----9-----------------------|
--8b----6-----------------------|--------------------------------|
-------------8-x-6-x-8-x-6-x-8--|-------------8-x-6-x-8-x-6-x-8--|
--------------------------------|--------------------------------|
--------------------------------|--------------------------------|


  Q     Q    S S S S S S S S E     Q    S S S S S S S S S S S S E   
--------------------------------|----------------------------------|
--------------------------------|----------------------------------|
--6b----------------------------|----------------------------------|
--------8----8-x-6-x-8-x-6-x-8--|---------------8-x-6-x-8-x-6-x-x--|
--------------------------------|-------------4--------------------|
--------------------------------|--6----9-6-L----------------------|


  E.  S E  E    E  E  Q.        E.  S E  E  E  E  Q.      
-----------------------------|---------------------------|
-----------------------------|---------------------------|
-------------------6---------|-----------------6---------|
-----------------------------|------6----6--8------------|
--------------6g8------------|--8-----8------------------|
--6---9-6--9-----------------|---------------------------|


  E.  S E  E  E   Q.      E     E.  S E  E  E   Q.      E   
-----------------------------|-----------------------------|
--------------6b--6~---------|-----------------------------|
------6----6-----------------|------6----6--8b--6~---------|
--8-----8--------------------|--8-----8--------------------|
-----------------------------|-----------------------------|
-----------------------------|-----------------------------|


  E   E  E   E  E   E  E   E    E        H         E  E     E    E  E     
------------------------------------|------------------------------------|
------------------------------------|------------------------------------|
--8b--6--8b--6--8b--6--8b--6--<>8b--|--<>8b--------L--8pbr--6--<>8--6br--|
------------------------------------|------------------------------------|
------------------------------------|------------------------------------|
------------------------------------|------------------------------------|


  H        E  S S E  E  E      Q    S S E  E  S S E  S S E    
----------------------------|--------------------------------|
--------------6------6------|--6----6---------6------6-------|
--L--------L----8-6-----8b--|---------8-6-------8-6------8b--|
----------------------------|--------------------------------|
----------------------------|--------------------------------|
----------------------------|--------------------------------|


  H.           S E.   E      E   E   E   E   E    E  Q.      
-------------------------|----------------------------------|
-------------------------|-----------------------18---------|
--L------------6---------|------18------18--20b-------------|
-----------------8---20--|--18------20----------------------|
-------------------------|----------------------------------|
-------------------------|----------------------------------|


   |---3---|                                                               
   Q       E   Q     E   E     E   E   E       E   Q     Q.     Q     E    
-------------------------------------------|-------------------------21b--|
--------------21b-----------------18--21b--|---L--21b---------------------|
--20br----18------------20br--18-----------|------------------------------|
-------------------------------------------|------------------------------|
-------------------------------------------|------------------------------|
-------------------------------------------|------------------------------|


   H         E   E      E   E   E      Q      E   E.   S  S  S S  S  S  S  E   
---L---------L--21pbr--18------18--|------------------18---------18-------18--|
---------------------------21------|--21b----21b---------21-18------21-18-----|
-----------------------------------|------------------------------------------|
-----------------------------------|------------------------------------------|
-----------------------------------|------------------------------------------|
-----------------------------------|------------------------------------------|


   H.             E      E   E      W                 E    
--------------------------------|------------------------||
--21b------------21pbr--18------|------------------------||
----------------------------20--|--18b-------------------||
--------------------------------|------------------------||
--------------------------------|------------------------||
--------------------------------|------------------------||










Rhythm (Wah)



     H.              Q.     H.              H        H        E   
E||---------------|--1-------------------|--1--------------------|
B||---------------|--2-------------------|--2--------------------|
G||---------------|--3-------------------|--3--------------------|
D||---------------|----------------------|-----------------------|
A||---------------|----------------------|-----------------------|
E||---------------|----------------------|-----------------------|


  W                E     W                E     H        H        E   
--4----------------L--|----------------------|--2--------------------|
--4----------------L--|--9----------------L--|--3--------------------|
--6----------------L--|--8----------------L--|--2--------------------|
--7----------------L--|--7----------------L--|-----------------------|
----------------------|----------------------|--3--------------------|
----------------------|----------------------|-----------------------|


  W                E     H        S S E  S S Q       Q    H.           E   
----------------------|---------------------------|--4--------------------|
----------------------|--5--------5-5----5-5------|--5--------------------|
----------------------|--4--------4-4----4-4------|--4--------------------|
----------------------|---------------------------|--6--------------------|
----------------------|---------------------------|-----------------------|
----------------------|---------------------------|-----------------------|


  W                E     H        H        E      Q      E   Q      E   
----------------------|-----------------------|------------------------|
----------------------|--3--------------------|--15S----13--12S----10--|
----------------------|--4--------------------|--15S----13--12S----10--|
----------------------|--5--------------------|--15S----13--12S----10--|
----------------------|-----------------------|------------------------|
----------------------|-----------------------|------------------------|


  Q     E    Q     E       H.           Q.        E  Q.     H        E   
----------------------|------------------------|-----1------------------|
--9S----7--4g5S----4--|--5g6-------------------|-----2------------------|
--9S----7--5g6S----5--|--5g6-------------------|-----3------------------|
--9S----7-------------|------------------------|------------------------|
----------------------|------------------------|------------------------|
----------------------|------------------------|------------------------|


  H        S S E  Q.        W                E     Q    E  H.            
-----------4-4-4---------|----------------------|-------2---------------|
-----------4-4-4---------|----------------------|-------3---------------|
-----------6-6-6---------|----------------------|-------2---------------|
-----------7-7-7---------|----------------------|-----------------------|
-------------------------|----------------------|-----------------------|
-------------------------|----------------------|-----------------------|


  H        S S S S Q    E     H        H        E   
--2--------L-5-2-----------|--4--------------------|
--3--------L-----5-3-------|--5--------------------|
--2--------L---------------|--4--------------------|
---------------------------|-----------------------|
---------------------------|-----------------------|
---------------------------|-----------------------|


  H        S S S S E  S S E     H        H        E                           
--2----------3-3-5-2---------|-----------------------|-------|-------|-------|
--3-------------------3-5-3--|--3--------------------|-------|-------|-------|
--4--------------------------|--4--------------------|-------|-------|-------|
--5--------------------------|--4--------------------|-------|-------|-------|
-----------------------------|--5--------------------|-------|-------|-------|
-----------------------------|-----------------------|-------|-------|-------|


-------|-------|-------|-------|-------|-------|-------|-------|-------|-------|
-------|-------|-------|-------|-------|-------|-------|-------|-------|-------|
-------|-------|-------|-------|-------|-------|-------|-------|-------|-------|
-------|-------|-------|-------|-------|-------|-------|-------|-------|-------|
-------|-------|-------|-------|-------|-------|-------|-------|-------|-------|
-------|-------|-------|-------|-------|-------|-------|-------|-------|-------|


-------|-------|-------|-------|-------|-------|-------|-------|-------|-------|
-------|-------|-------|-------|-------|-------|-------|-------|-------|-------|
-------|-------|-------|-------|-------|-------|-------|-------|-------|-------|
-------|-------|-------|-------|-------|-------|-------|-------|-------|-------|
-------|-------|-------|-------|-------|-------|-------|-------|-------|-------|
-------|-------|-------|-------|-------|-------|-------|-------|-------|-------|


-------|-------|-------|-------|-------|-------|-------|-------|-------|-------|
-------|-------|-------|-------|-------|-------|-------|-------|-------|-------|
-------|-------|-------|-------|-------|-------|-------|-------|-------|-------|
-------|-------|-------|-------|-------|-------|-------|-------|-------|-------|
-------|-------|-------|-------|-------|-------|-------|-------|-------|-------|
-------|-------|-------|-------|-------|-------|-------|-------|-------|-------|


-------|-------|-------|-------|-------|-------|-------|-------|-------|-------|
-------|-------|-------|-------|-------|-------|-------|-------|-------|-------|
-------|-------|-------|-------|-------|-------|-------|-------|-------|-------|
-------|-------|-------|-------|-------|-------|-------|-------|-------|-------|
-------|-------|-------|-------|-------|-------|-------|-------|-------|-------|
-------|-------|-------|-------|-------|-------|-------|-------|-------|-------|


-------|-------|-------|-------|-------|-------|-------|-------|-------|-------|
-------|-------|-------|-------|-------|-------|-------|-------|-------|-------|
-------|-------|-------|-------|-------|-------|-------|-------|-------|-------|
-------|-------|-------|-------|-------|-------|-------|-------|-------|-------|
-------|-------|-------|-------|-------|-------|-------|-------|-------|-------|
-------|-------|-------|-------|-------|-------|-------|-------|-------|-------|


-------|-------|-------|-------|-------|-------|-------|-------|-------|-------|
-------|-------|-------|-------|-------|-------|-------|-------|-------|-------|
-------|-------|-------|-------|-------|-------|-------|-------|-------|-------|
-------|-------|-------|-------|-------|-------|-------|-------|-------|-------|
-------|-------|-------|-------|-------|-------|-------|-------|-------|-------|
-------|-------|-------|-------|-------|-------|-------|-------|-------|-------|


-------|-------|-------|-------|-------|-------|-------|-------|-------|-------|
-------|-------|-------|-------|-------|-------|-------|-------|-------|-------|
-------|-------|-------|-------|-------|-------|-------|-------|-------|-------|
-------|-------|-------|-------|-------|-------|-------|-------|-------|-------|
-------|-------|-------|-------|-------|-------|-------|-------|-------|-------|
-------|-------|-------|-------|-------|-------|-------|-------|-------|-------|


-------|-------|-------|-------|-------|-------|-------|-------|-------|-------|
-------|-------|-------|-------|-------|-------|-------|-------|-------|-------|
-------|-------|-------|-------|-------|-------|-------|-------|-------|-------|
-------|-------|-------|-------|-------|-------|-------|-------|-------|-------|
-------|-------|-------|-------|-------|-------|-------|-------|-------|-------|
-------|-------|-------|-------|-------|-------|-------|-------|-------|-------|


-------|-------|-------|-------|-------|-------|-------|-------|-------|-------|
-------|-------|-------|-------|-------|-------|-------|-------|-------|-------|
-------|-------|-------|-------|-------|-------|-------|-------|-------|-------|
-------|-------|-------|-------|-------|-------|-------|-------|-------|-------|
-------|-------|-------|-------|-------|-------|-------|-------|-------|-------|
-------|-------|-------|-------|-------|-------|-------|-------|-------|-------|


                  H.           S S S S    Q    H.            
-------|-------|-----------------6---6-|--6-----------------|
-------|-------|-----------------6---6-|--6-----------------|
-------|-------|-----------------6---6-|--6-----------------|
-------|-------|-----------------6---6-|--6-----------------|
-------|-------|-----------------8---8-|--8-----------------|
-------|-------|-----------------------|--------------------|


  Q    Q    H           W                   W                 
--6----6-------------|--6----------------|-------------------|
--6----6-------------|--6----------------|--9----------------|
--6----6-------------|--6----------------|--8----------------|
--6----6-------------|--6----------------|--7----------------|
--8----8-------------|--8----------------|-------------------|
---------------------|-------------------|--7----------------|


  S S E  H.              S S E  S S E  H           S S E  S S E  H         
----------------------|-------------------------|-------------------------|
--9-9-----------------|--9-9----9-9-------------|--9-9----9-9-------------|
--8-8-----------------|--8-8----8-8-------------|--8-8----8-8-------------|
--7-7-----------------|--7-7----7-7-------------|--7-7----7-7-------------|
----------------------|-------------------------|-------------------------|
--7-7-----------------|--7-7-x--7-7-x-----------|--7-7-x--7-7-x-----------|


  W                   W                   E  E  E  E  H         
-------------------|-------------------|--2-----2--------------|
-------------------|-------------------|--3-----3--------------|
-------------------|-------------------|--2-----2--------------|
-------------------|-------------------|-----------------------|
-------------------|-------------------|--3-----3--------------|
-------------------|-------------------|-----------------------|


  S S E  E  E  H           E  E  E  E  H           S S E  E  E  H         
--2-2----2--------------|--4-----4--------------|--4-4----4--------------|
--3-3----3--------------|--5-----5--------------|--5-5----5--------------|
--2-2----2--------------|--4-----4--------------|--4-4----4--------------|
------------------------|-----------------------|------------------------|
--3-3----3--------------|--5-----5--------------|--5-5----5--------------|
------------------------|-----------------------|------------------------|


  S S S S E  E  H           S S E  Q    Q    Q       W                 
--4-4-----4--------------|--4-4-------------------|-------------------|
--5-5-----5--------------|--5-5-------------------|-------------------|
--4-4-----4--------------|--4-4-------------------|-------------------|
-------------------------|------------------------|-------------------|
--5-5---x-5--------------|--5-5----x---------x----|-------------------|
-------------------------|------------------------|-------------------|


  H        S S E  E  E     S S E  S S E  S S E  E  E     W                 
-----------2-2----2-----|--2-2----2-2----2-2----2-----|--2----------------|
-----------3-3----3-----|--3-3----3-3----3-3----3-----|--3----------------|
-----------4-4----4-----|--4-4----4-4----4-4----4-----|--4----------------|
-----------5-5----5-----|--5-5----5-5----5-5----5-----|--5----------------|
------------------------|-----------------------------|-------------------|
------------------------|-----------------------------|-------------------|


   Q.     Q.        Q.     Q.        W                   Q    Q    H         
--10------7------|--4------0------|--6----------------|--6------------------|
--11------8------|--5------2------|--6----------------|--6------------------|
--10------7------|--4------2------|--6----------------|--6------------------|
-----------------|----------------|--6----------------|--6------------------|
--11------8------|--5------2------|--8----------------|--8------------------|
-----------------|----------------|-------------------|---------------------|


  Q    Q    Q    Q       Q    S S S S E  S S E  S S    Q    H.            
----------------------|-----------------------------|--2-----------------|
--9----6--------------|-----------------------------|--2-----------------|
------------6---------|-----------------------------|--2-----------------|
-----------------8----|--6----x-x-x-x-6--x-x-6--x-x-|--1-----------------|
----------------------|-----------------------------|--2-----------------|
----------------------|-----------------------------|--------------------|


  E  E  E  E  E  S S S S E     E  Q    E  Q    E  E     W                 
--2-----2--------2---2-2----|--2-------2-------2-----|-------------------|
--2-----2--------2---2-2----|--2-------2-------2-----|-------------------|
--2-----2--------2---2-2----|--2-------2-------2-----|-------------------|
--1-----1--------1---1-1----|--1-------1-------1-----|-------------------|
--2-----2--------2---2-2----|--2-------2-------2-----|-------------------|
----------------------------|------------------------|-------------------|


  W                   W                   Q    H.            
-------------------|--2----------------|--2----2------------|
-------------------|--3----------------|--3----3------------|
-------------------|--2----------------|--2----2------------|
-------------------|-------------------|--------------------|
-------------------|--3----------------|--3----3------------|
-------------------|-------------------|--------------------|


  W                   W                   Q    H.            
--L----------------|--4----------------|--L-----------------|
--L----------------|--5----------------|--L-----------------|
--L----------------|--4----------------|--L-----------------|
-------------------|-------------------|--------------------|
--L----------------|--5----------------|--L-----------------|
-------------------|-------------------|--------------------|


  Q    Q    H           W                   W                 
--4----4-------------|-------------------|--2----------------|
--5----5-------------|-------------------|--3----------------|
--4----4-------------|-------------------|--4----------------|
---------------------|-------------------|--5----------------|
--5----5-------------|-------------------|-------------------|
---------------------|-------------------|-------------------|


  W                   Q    Q    Q    Q       Q    Q    Q    Q     
--L----------------|--2----2----2----2----|--2----2----2----2----|
--L----------------|--3----3----3----3----|--3----3----3----3----|
--L----------------|--4----4----4----4----|--4----4----4----4----|
--L----------------|--5----5----5----5----|--5----5----5----5----|
-------------------|----------------------|----------------------|
-------------------|----------------------|----------------------|


   Q.     Q.        Q.     Q.                                              
--10------7------|--4------0------|-------|-------|-------|-------|-------|
--11------8------|--5------2------|-------|-------|-------|-------|-------|
--10------7------|--4------2------|-------|-------|-------|-------|-------|
-----------------|----------------|-------|-------|-------|-------|-------|
--11------8------|--5------2------|-------|-------|-------|-------|-------|
-----------------|----------------|-------|-------|-------|-------|-------|


-------|-------|-------|-------|-------|-------|-------|-------|-------|-------|
-------|-------|-------|-------|-------|-------|-------|-------|-------|-------|
-------|-------|-------|-------|-------|-------|-------|-------|-------|-------|
-------|-------|-------|-------|-------|-------|-------|-------|-------|-------|
-------|-------|-------|-------|-------|-------|-------|-------|-------|-------|
-------|-------|-------|-------|-------|-------|-------|-------|-------|-------|


-------|-------|-------|-------|-------|-------|-------|-------|-------|-------|
-------|-------|-------|-------|-------|-------|-------|-------|-------|-------|
-------|-------|-------|-------|-------|-------|-------|-------|-------|-------|
-------|-------|-------|-------|-------|-------|-------|-------|-------|-------|
-------|-------|-------|-------|-------|-------|-------|-------|-------|-------|
-------|-------|-------|-------|-------|-------|-------|-------|-------|-------|


-------|-------|-------|-------|-------|-------|-------|-------|-------|-------|
-------|-------|-------|-------|-------|-------|-------|-------|-------|-------|
-------|-------|-------|-------|-------|-------|-------|-------|-------|-------|
-------|-------|-------|-------|-------|-------|-------|-------|-------|-------|
-------|-------|-------|-------|-------|-------|-------|-------|-------|-------|
-------|-------|-------|-------|-------|-------|-------|-------|-------|-------|


-------|-------|-------|-------|-------|-------|-------|-------|-------|-------|
-------|-------|-------|-------|-------|-------|-------|-------|-------|-------|
-------|-------|-------|-------|-------|-------|-------|-------|-------|-------|
-------|-------|-------|-------|-------|-------|-------|-------|-------|-------|
-------|-------|-------|-------|-------|-------|-------|-------|-------|-------|
-------|-------|-------|-------|-------|-------|-------|-------|-------|-------|


-------|-------||
-------|-------||
-------|-------||
-------|-------||
-------|-------||
-------|-------||




Duration Legend
---------------
W - whole
H - half
Q - quarter
E - 8th
S - 16th
T - 32nd
X - 64th
. - note dotted
|-n-|  - n-tuplets


Tablature Legend
----------------
L - tied note
x - dead note
g - grace note
(n) - ghost note
> - accentuded note
NH - natural harmonic
AH - artificial harmonic
TH - tapped harmonic
SH - semi harmonic
PH - pitch harmonic
h - hammer on
p - pull off
b - bend
br - bendRelease
pb - preBend
pbr - preBendRelease
brb - bendReleaseBend
\n/ - tremolo bar dip
\n - tremolo bar dive
-/n - tremolo bar Release up
/n\ - tremolo bar inverted dip
/n - tremolo bar return
-\n - tremolo bar Release down
S - shift slide
s - legato slide
/ -  slide into from below or out of upwards
\ -  slide into from above or out of downwards
~ - vibrato
W - wide vibrato
tr - trill
TP - tremolo picking
T - tapping
S - slap
P - pop
< - fade in
^ - brush up
v - brush down
comments
We did not receive enough feedback on this tab! Please rate:
print report bad tab
1 2 3 4 5
I want to post or [tab]
guest
You may want to rate the tab now too:
select rating
Please do not post tabs as comments. Select "correction" instead!