Oops, an error
Loading. Please wait.

Freeway Jam Tab

15,957 views 60 this week
4 commentsread comments
1 2 3 4 5
excellent!
x 5
Autoscroll
+/-
esc
set tempo
stop
Contributor
Difficulty
intermediate
WARNING: You are trying to view
                                    content from Ultimate-Guitar.com
                                    in an unauthorized application,
                                    which is prohibited.

                                    Please use an official Ultimate
                                    Guitar Tabs application for iPhone,
                                    iPad or Android to access legitimate
                                    chords, guitar, bass, and drum tabs
                                    from Ultimate-Guitar.com database.

                                    Type "ultimate guitar tabs" in Apple
                                    App Store's or Android Market's
                                    search to find the application.
---------------------------------------------------------------------------

                         Jeff Beck - Freeway Jam
                             
---------------------------------------------------------------------------

Tabbed by:Evil_empire24-7

Tuning:EADGBe

the first freeway jam tab for jeff beck there aren't much of beck around the net so enjoy it and please rate

Legend:
       Tremolo arm dive: ^
       half bend: hb
       full bend: fb
       pinch harmonic: *
       natural harmonic: #
       pull off: p
       hammer on: h
       vibrato: ~
       let ring: +
       slide: /
       muted string: x
       tremolo picking: <

===========================================================================

Moderated Rock Shuffle=133


Gtr1 / Jeff Beck Dirty Electric


                             (Intro)

  Drums   ++++++++++              +++++++++++++++++++    ++++        
e|------|--------------------------------------------------------------|
B|------|--------------------------------------------------------------|
G|------|-12#-----12^(1/2)--------12#------12^(1/2)-12---12*-----------|
D|------|--------------------------------------------------------------|
A|------|--------------------------------------------------------------|
E|------|--------------------------------------------------------------|

   +++++          +++                   ++    +++++
e|---------------------------------------------------------------------|
B|-15--/--------------------------------3------------------------------|
G|-15--/----------------x/--------------3------------------------------|
D|-15--/-----5p0--------x/-4/5----------3------------------------------|
A|----------------3*---------------------------------------------------|
E|-------------------------2/3----------------3---3^(1/2)--------------|

                              +++++++++++++        ++++++++   +++
e|-----------------------------------------------------------------|
B|-----------------------------------------------------------------|
G|---------------3------------3~~~~~~~~~~-3^(1/4)------------------|
D|-------------------------------------------------5~~~~~~~--------|
A|--------------x---------------------------------------------3hb--|
E|-1/3-3---3-3-3---------------------------------------------------|

                 ++++++++    +++++++++          ++++++++++++++
e|-----------------------------------------------------------------|
B|-----------------------------------------------------------------|
G|---------------3~~~~~~~------------------------------------------|
D|---------------------------5~~~~~~~~---3-------------------------|
A|-3-1b(1/4)-------------------------------5/3--1^--(1/2)-^-(1/2)--|
E|-----------------------------------------------------------------|

                         +++  ++++++++
e|-------------------------------------------------------15--------|
B|--------0--x/-0-0-----------18fb---^--x/-------------------------|
G|-----x/-0--x/-0-0---------------------x/-------------15----------|
D|-----x/-0--0--0-0--x/------------------------x/-8/17-------------|
A|-x/----------------x/--------------------------------------------|
E|-x/--------------------6-----------------x/x/--------------------|

                              +++++++++
e|-----15----15----15--------------------15------------------------|
B|-18fb--18fb--18fb--18fb-15--18~~~~~~~-----18p15------------------|
G|-----------------------------------------------------------------|
D|-----------------------------------------------------------------|
A|-----------------------------------------------------------------|
E|-----------------------------------------------------------------|

   ++++++   ++++++++++++                               +++++
e|-----------------------------------------------------------------|
B|-17^(1/2)p15-----^(1/2)--------------------------12<~~~~~~-------|
G|------------------------h17--15^(1/2)/17--x/---12----------------|
D|-----------------------------------------------------------------|
A|-----------------------------------------------------------------|
E|-----------------------------------------------------------------|

         +++++                                  ++           ++
e|-----------------------------------------------------------------|
B|-15p12h15--^(1/2)/0-------------------------------0--0-----------|
G|----------------------------------------------0---0--0-2---7#----|
D|---------------------5---3--3--3--3--------5---------------------|
A|-----------------------------------------------------------------|
E|--------------------1--1--1--1--1--1-1-2---3---------------------|

   ++++++++  +++++                                     ++++++
e|-----------------------------------------------------------------|
B|-12#-------8---------15--15--15--15--15--15--15-15---17--fb------|
G|-----------7---0-------15------15------15------------15--fb------|
D|-----------------------------------------------------------------|
A|-----------------------------------------------------------------|
E|-----------------------------------------------------------------|

           (1st verse)
                                 ++++++
e|-----------------------------------------------------------------|
B|---------------------------15h17--p15-----15~~~~~~~~~~-----------|
G|----------14-16-17~~~~~~----------------17-----------------------|
D|-/17~~~~~--------------------------------------------------------|
A|-----------------------------------------------------------------|
E|-----------------------------------------------------------------|

                  +++       +++
e|-----------------------------------------------------------------|
B|-----------------------------------------------------------------|
G|----------14-16-17--16-14--------14------------------------------|
D|-17~~~~~~-----------------15---17--17~~~~~~~---------------------|
A|-----------------------------------------------------------------|
E|-----------------------------------------------------------------|

                                ++++++
e|-----------------------------------------------------------------|
B|---------------------------15h17--p15-----15~~~~~~~~~~-----------|
G|----------14-16-17~~~~~~----------------17-----------------------|
D|-/17~~~~~--------------------------------------------------------|
A|-----------------------------------------------------------------|
E|-----------------------------------------------------------------|

                  +++       +++  
e|-----------------------------------------------------------------|
B|-----------------------------------------------------------------|
G|----------14-16-17--16-14--------14------------------------------|
D|-17~~~~~~-----------------15---17--17~~~~~~~---------------------|
A|-----------------------------------------------------------------|
E|--------------------------------------------------13/1-----------|


                              (bridge)

        +++++                                       +++++++
e|-------------------------------------------------------------------|
B|-------------------------------------------------------------------|
G|-----------------3----------------------5*fb-5*fb-5*fb----3b(1/4)--|
D|------3---------------------3---5~~~~~~----------------------------|
A|-------------3/5---5/3--3------------------------------------------|
E|-3--x---------------------1----------------------------------------|

         ++                           +++    +++     +++
e|-------------------------------------------------------------------|
B|-------------------------------------------------------------------|
G|----------------------------------------------------------9*/11----|
D|-5--5*/3-----------------------------------------9/11-/9-----------|
A|------------3/5--4-----------------------7/9-/7--------------------|
E|-------------------6/3-1--x/--1h3-3-5------------------------------|

     +++++++++      +++          +++           ++++++++
e|-------------------------------------------------------------------|
B|-9*~~~~~~--/-------------------------------------------------------|
G|-------------------------3p0---------------12>-^-^-^(while picking)|
D|------------------8-----------/6----6-0-12-------------------------|
A|-------------------------------------------------------------------|
E|-------------x-3--6----5-------------------------------------------|


e|-------------------------------------------------------------------|
B|-------------------------------------------------------------------|
G|-12h15/------------------------------------------------------------|
D|-------------------------------------------------------------------|
A|-------------------------------------------------------------------|
E|--------5/---------------------------------------------------------|


                        (guitar solo)

            ++++                                         +++
e|-15----------------------------------------------------------------|
B|----18p15----------------------------------------------------------|
G|----------18fb-----------------------------------------------------|
D|----------------15---17<-------------------------------------------|
A|-------------------------15<--13<-------13--------13---------13----|
E|----------------------------------15-13---15^(1/2)--15^(1/2)-------|

                                      +++++++++++ 
e|-------------------------------------------------------------------|
B|------------------------------------18hb-fb---^/-------------------|
G|------------------------------------18hb-fb---^/-------------------|
D|-------------------------------------------------------------------|
A|-13----(make it 18 times)-13---------------------------------------|
E|---15hb---------------------15/13----------------------------------|

   +++++++++++++++++++++          +++++++++++
e|-------------------------------------------------------------------|
B|-18fb--^(1/4)-^(1/4)-^(1/4)----------------------------------------|
G|-17fb--^(1/4)-^(1/4)-^(1/4)--15-15--^(1/2)------------13-----------|
D|-------------------------------------------17-15-------------------|
A|-------------------------------------------------17/15--15-13--13--|
E|-------------------------------------------------------------15----|

                             ++++++    +++++++++++++++++++++++++++
e|----------------------------------|----------------------|----------|
B|-----------------------------15---|----------------------|----------|
G|---------------------------15-----|15p0^(1/2)--0h15^(1/2)|---15fb---|
D|---------------------17-17--------|----------------------|----------|
A|----------------------------------|(make the lick 4 time)|----------|
E|-13fb-15/-x/--x/------------------|----------------------|----------|

                                                        ++++++ 
e|-----15--15--15---15-15---21hb-21hb-21hb-21hb-21(1/4)-21hb-/------|
B|-18fb--18--18--18-------------------------------------------------|
G|------------------------------------------------------------------|
D|------------------------------------------------------------------|
A|------------------------------------------------------------------|
E|------------------------------------------------------------------|

       +++++++++
e|------------------------------------------------------------------|
B|-----3---3---3----------------------------------------------------|
G|-------3---3---5fbp3----------------------------------------------|
D|-2/3-----------------5*-5*~~~~~~~~~~------------------------------|
A|------------------------------------------------------------------|
E|------------------------------------------------------------------|

                         (2nd verse)

                             ++
e|------------------------------------------------------------------|
B|-----------------------15h17--15--15~~~~~~~~----------------------|
G|---------14-16-17~~~~~----------17--------------------------------|
D|-/17~~~~----------------------------------------------------------|
A|------------------------------------------------------------------|
E|------------------------------------------------------------------|

                 ++++++  +++
e|-----------------------------------------------15-----------------|
B|---------------------------------------------15----18-15--18--15--|
G|---------14-16-16hb-p4-------15------------15---------------17----|
D|-/17~~~~---------------15-h17--17~~~~~~~--------------------------|
A|------------------------------------------------------------------|
E|------------------------------------------------------------------|

                                              ++++
e|------------------------|-----------------------------------------|
B|------------------------|-----------------------------------------|
G|-15-16------------------|-----------------3h5--p3----3~~~~~~~~----|
D|-------17---------------|------2-4-5~~~~~----------5--------------|
A|----------17-15/12------|-5~~~~-----------------------------------|
E|-------------------15/0-|-----------------------------------------|

              +++     ++
e|------------------------------------------------------------------|
B|------------------------------------------------------------------|
G|--------2-4-5---4-2------3-3hb------------------------------------|
D|-5~~~~~-------------3--5---------5~~~~~~~-------------------------|
A|------------------------------------------------------------------|
E|------------------------------------------------------------------|


                            (bridge)

                                           +++++++
e|------------------------------------------------------------------|
B|------------------------------------------------------------------|
G|------------------------------------------------------------------|
D|--------------3-1-1-1-1---1---1-1---1---/5--------------x/--------|
A|------------------------------------------------------------------|
E|-3--1----x-1--------1---1---1-----1-------------------------------|

                        ++++++            +++++    ++++++++++++ 
e|------------------------------12-14p12h14~~~p12--14fb-14fb--p12---|
B|-12p10~~~~~~~~~------/14------------------------------------------|
G|------------------------------------------------------------------|
D|------------------------------------------------------------------|
A|------------------------------------------------------------------|
E|------------------------------------------------------------------|

   +++++++++++    ++  ++  ++
e|------------------------------------------------------------------|
B|-14~~~~---/14-----------------------------------------------------|
G|-----------------------------------0----------3-------------------|
D|----------------8---6---5-------0--0-----x/-----------------------|
A|----------------------------2-------------------------------------|
E|----------------6---4---3-----3-------3---------/3----------------|


                           (keyboard solo)
                                  |
                i don't think u need it u are a guitarist



                            (begin fade)

                            
                             (fade out) 


enjoy first freeway jam over the internet   !!!!!!!!!!!!!!!        
4 comments total. Showing first comments. show 1 bad comment
0 reply
Vidar Viking wrote on November 15 2006, 05:39 pm

Awesome! :)

Someone got the tab for "Star Cycle"? I've searched the whole net for it, but cant find it anywhere. :P

0 reply
Brodel wrote on September 16 2008, 02:30 am

lol

I want to post or [tab]
guest
You may want to rate the tab now too:
select rating
Please do not post tabs as comments. Select "correction" instead!