Oops, an error
Loading. Please wait.

Too Much To Lose Bass Tab

444 views 3 this week
no commentswrite comment
1 2 3 4 5
please rate
add to favorites launch autoscroll
font size
0
reset
Autoscroll
+/-
esc
set tempo
stop
Contributor
WARNING: You are trying to view
                                    content from Ultimate-Guitar.com
                                    in an unauthorized application,
                                    which is prohibited.

                                    Please use an official Ultimate
                                    Guitar Tabs application for iPhone,
                                    iPad or Android to access legitimate
                                    chords, guitar, bass, and drum tabs
                                    from Ultimate-Guitar.com database.

                                    Type "ultimate guitar tabs" in Apple
                                    App Store's or Android Market's
                                    search to find the application.
-------------------------------------------------------------------------------
	                Too Much To Lose - Jeff Beck
-------------------------------------------------------------------------------

Tabbed By : LexouDuck
e-mail: lexduck@live.fr


So here's the sweet bassline for Jeff Beck's "Too Much To Lose".
I put in the whole song exactly as it's played, with the different mini solos.
There's this strange bass effect going on, giving this kind of Rhodes-esque sound, like 
in "Play With Me".


Tuning: Standard Bass tuning

                     E  Q    E  E  E       Q    S S Q    S S S S E
G||-------|-------|-------------------|-----------------------------|
D||-------|-------|-------------------|----------------------5------|
A||-------|-------|----------------2--|--3/5----3-5-3---------------|
E||-------|-------|----------3--5-----|------------------------3-1--|


  S S S S E  S S E  E  E  E     Q    S S S  S  S S S  S  S S S S
-----------------------------|-----------------------------------|
---------------3----3-----4--|-----------5-----5-7-5-------------|
-----------------------------|-------5-7-------------------------|
----------1------1-----2-----|--3----------(3)-------(3)-5-7-5---|


  Q    Q    E  E  E    E     Q    S S Q    S S S S E
--------------------------|---------------------------|
--------------------------|--------------------5------|
------------------2--3/5--|-------3-5-3---------------|
--3---------3--5----------|----------------------3-1--|


  S S S S S S S S E  E  E  E     Q    S S S  S  S S S  S  S S S S
------------------------------|-----------------------------------|
------3---5-3---3----3-----4--|-----------5-----5-7-5-------------|
------------------------------|-------5-7-----------------5-7-5---|
--------------1---1-----2-----|--3----------(3)-------(3)---------|


  E  S S S S E  E  E  E  E     Q    E  E  S S S S S S E
----------------------------|-------5--------------------|
----------------------------|----------------------------|
----------------------1--3--|----------3------3---1-3-1--|
--3----5-7-5-3--3--5--------|----------------------------|


  E  E  E  E  E  S S E  E     E  Q    Q    Q    E     E  E  E  E  E  E  E  E
--------3--------3---3-----|--------------------8--|--L-----------------------|
------------------------1--|---------------8-------|-----8--------3-----------|
-----1--------1----1-------|----------6------------|--------6--------3--------|
---------------------------|-----6-----------------|--------------------1--3--|


  S S S S S S E  E  E  E  E     S S S S S S S S E  E  E  E
-----------------------------|------------------------------|
------5-------------5--------|------3---5-3---3----3-----4--|
----------2---3--------------|------------------------------|
--------3--------------3--1--|--------------1---1-----2-----|


  E  S S E  S S E  S S E  S  S     E   S S E   S  S   S   S  E  E  E
--------------------------------|-------------------------------------|
-----5------7------8------9-----|-----10------11--------(12)----------|
--------------------------------|-------------------------------------|
--3------5------6------7----(7)-|--8-------9-----(9)-10------0--1--2--|


  E  S S E  S S E  S S E  S  S     Q    E  E  E  E  E  E
--------------------------------|-------------------------|
-----5------7------8------9-----|-------------------------|
--------------------------------|-------------------------|
--3------5------6------7----(7)-|--8----9-----------------|


  Q    E  Q    E  E  E     S S S S S S S S E  E  E  E
------------------------|------------------------------|
------------------------|----------3----------------4--|
--5----5--3-------3-----|------------3---3----3--------|
---------------------1--|--------------1---1-----2-----|


  E  S S E  S S E  S S E  S  S     E   S S  E   S S  E   S   S   S  S E
--------------------------------|----------------------------------------|
-----5------7------8------9-----|-----10-------12-------13---------14----|
--------------------------------|----------------------------------------|
--3------5------6------7----(7)-|--8-------10-------11-----(11)-12----0--|


  E  S S E  S S E  S S E  S S    E  S S E  E   E   E   E   E
------------------------------|-------------------------------|
-----3------5------6------7---|-----8---------(8)-----(8)-----|
------------------------------|---------3--5-------6-------3--|
--1------3------4------5------|--6----------------------------|


   E   E   E   E  E  S S S S E     E  S S E  E   E   E   E   E
-------------------------3---3--|-------------------------------|
--(8)-----(8)--------3-5---5----|-----8---------(8)-----(8)-----|
--------------------------------|---------3--5-------6-------3--|
-------4-------6----------------|--6----------------------------|


   E   E   E   E  E  S S S S E     E  S S E  E   E   E   E   E
-------------------------3-5-3--|-------------------------------|
--(8)-----(8)--------3-5--------|-----8---------(8)-----(8)-----|
--------------------------------|---------3--5-------6-------3--|
-------4-------6----------------|--6----------------------------|


   E   Q    E  E  E  E    E     Q    S S Q    S S S S E
-----------------------------|---------------------------|
--(8)------------------------|--------------------5------|
---------------------2--3/5--|-------5-7-3---------------|
-------4-------3--5----------|----------------------3-1--|


  S S S S S S S S E  S  S  E  S  S     Q    S S S  S  S S S S S S S S
------------------------------------|---------------------------------|
------3---5-3---3----3--------4-----|-----------5-----5---------------|
------------------------------------|-------5-7---------7-5-7---5-----|
--------------1---1----(1)-2----(2)-|--3----------(3)---------------7-|


  Q    S S E  E  E  E  E     Q    E  Q    S S S S E
--------------------------|--------------------------|
-------5-7-5--------------|-------------------5------|
-----------------5-----2--|--L----2--3---------------|
--3-----------3-----3-----|---------------------3-1--|


  S S S S S S S S E  E  E  E     Q    S S S  S  S S S S S S S S
------------------------------|---------------------------------|
------3---5-3---3----3--------|-----------5---------------------|
------------------------3-----|-------5-7-------5-7-5-x---------|
--------------1---1--------2--|--3----------(3)---------7---3-3-|


  Q    Q    E  E  E    E     E  S S E  S S E  S S E  S  S
--------------------------|-----5------5------5------5-----|
--------------------------|--------------------------------|
------------------2--2/3--|---------3------3------3----(3)-|
--L---------3--5----------|--------------------------------|


  E  S S E  S  S  E  E  E  E     E  Q    Q    Q    E
-----3------3-----------------|--------------------8--|
------------------------------|---------------8-------|
--1------1----(1)-1--3--1--6--|--L-------6------------|
------------------------------|-----6-----------------|


  E  E  E  E  E  E  E  E     S S S S S S E  E  E  E  E
--L-----------------------|-----------------------------|
-----8--------3-----------|------5-------------5--------|
--------6--------3--------|----------2---3--------------|
--------------------1--3--|--------3--------------3--1--|


  S S S S S S S S E  E  E  E     E  S S E  S S E  S S E  S  S
------------------------------|--------------------------------|
------3---5-3---3----3-----4--|-----5------7------8------9-----|
------------------------------|--------------------------------|
--------------1---1-----2-----|--3------5------6------7----(7)-|


  E   S S E   S  S   S   S  E  E  E     E  S S E  S S E  S S E  S  S
-------------------------------------|--------------------------------|
-----10------11--------(12)----------|-----5------7------8------9-----|
-------------------------------------|--------------------------------|
--8-------9-----(9)-10------0--1--2--|--3------5------6------7----(7)-|


  E   S S E   S  S   S   S  E  E  E     E  S S E  S S E  S S E  S  S
-------------------------------------|--------------------------------|
-----10------11--------(12)----------|-----5------7------8------9-----|
-------------------------------------|--------------------------------|
--8-------9-----(9)-10------0--1--2--|--3------5------6------7----(7)-|


  E   S S E   S  S   S   S  E  E  E     E  S S E  S S E  S S E  S  S
-------------------------------------|--------------------------------|
-----10------11--------(12)----------|-----5------7------8------9-----|
-------------------------------------|--------------------------------|
--8-------9-----(9)-10------0--1--2--|--3------5------6------7----(7)-|


  E   S S E   S  S   S   S  E  E  E     E  S S E  S S E  S S E  S  S
-------------------------------------|--------------------------------|
-----10------11--------(12)----------|-----5------7------8------9-----|
-------------------------------------|--------------------------------|
--8-------9-----(9)-10------0--1--2--|--3------5------6------7----(7)-|


  E   S S E   S  S   S   S  E  E  E     E  S S E  S S E  S S E  S  S
-------------------------------------|--------------------------------|
-----10------11--------(12)----------|-----5------7------8------9-----|
-------------------------------------|--------------------------------|
--8-------9-----(9)-10------0--1--2--|--3------5------6------7----(7)-|


  E   S S E   S  S   S   S  E  E  E     E  S S E  S S E  S S E  S  S
-------------------------------------|--------------------------------|
-----10------11--------(12)----------|-----5------7------8------9-----|
-------------------------------------|--------------------------------|
--8-------9-----(9)-10------0--1--2--|--3------5------6------7----(7)-|


  E   S S E   S  S   S   S  E  E  E     E  S S E  S S E  S S E  S  S
-------------------------------------|--------------------------------|
-----10------11--------(12)----------|-----5------7------8------9-----|
-------------------------------------|--------------------------------|
--8-------9-----(9)-10------0--1--2--|--3------5------6------7----(7)-|


  E   S S E   S  S   S   S  E  E  E     E  S S E  S S E  S S E  S  S
-------------------------------------|--------------------------------|
-----10------11--------(12)----------|-----5------7------8------9-----|
-------------------------------------|--------------------------------|
--8-------9-----(9)-10------0--1--2--|--3------5------6------7----(7)-|


  E   S S E   S S  E   S S  E   S S    E  S S E  S S E  S S E  S S
------------------------------------|------------------------------|
-----10------11-------13-------14---|-----3------5------6------7---|
------------------------------------|------------------------------|
--8-------9-------11-------12-------|--1------3------4------5------|


  E  S S E  E   E   E   E   E      E   E   E   E  E  S S S S E
-------------------------------|-------------------------3-5-3--|
-----8---------(8)-----(8)-----|--(8)-----(8)--------3-5--------|
---------3--5-------6-------3--|--------------------------------|
--6----------------------------|-------4-------6----------------|


  E  S S E  E   E   E   E   E      E   E   E   E  E  S S S S E
-------------------------------|-----------------------3-----3--|
-----8---------(8)-----(8)-----|--(8)-----(8)--------5-----5----|
---------3--5-------6-------3--|--------------------------------|
--6----------------------------|-------4-------6----------------|


  E  S S E  E   E   E   E   E      E   Q    E  E  E  E    E
-------------------------------|-----------------------------|
-----8---------(8)-----(8)-----|--(8)------------------------|
---------3--5-------6-------3--|---------------------2--3/5--|
--6----------------------------|-------4-------3--5----------|


  Q    S S Q    S S S S E     S S S S S S S S E  E  E  E
---------------------------|------------------------------|
--------------------5------|------3---5-3--------3--------|
-------3-5-3---------------|------------------------------|
----------------------3-1--|--------------1---1-----2--3--|


  H        H
--------------------||
--------------------||
--------------------||
--L-----------------||



| /  slide up
| \  slide down
| h  hammer-on
| p  pull-off
| () ghost note
| +  harmonic
| x  Mute note
|
|Duration Legend
|---------------
|
| W - whole
| H - half
| Q - quarter
| E - 8th
| S - 16th
| T - 32nd
| . - dotted note
=============================================================================
comments
We did not receive enough feedback on this tab! Please rate:
1 2 3 4 5
I want to post or [tab]
guest
You may want to rate the tab now too:
select rating
Please do not post tabs as comments. Select "correction" instead!