Oops, an error
Loading. Please wait.

Eternal Life Tab

ver1
ver1

Whole song

More versions @911Tabs.com
24,198 views 39 this week
no commentswrite comment
1 2 3 4 5
accurate
x 7
Autoscroll
+/-
esc
set tempo
stop
WARNING: You are trying to view
                                    content from Ultimate-Guitar.com
                                    in an unauthorized application,
                                    which is prohibited.

                                    Please use an official Ultimate
                                    Guitar Tabs application for iPhone,
                                    iPad or Android to access legitimate
                                    chords, guitar, bass, and drum tabs
                                    from Ultimate-Guitar.com database.

                                    Type "ultimate guitar tabs" in Apple
                                    App Store's or Android Market's
                                    search to find the application.
Tabbed By: John Hennessy
EMail: John55@indigo.ie


Band:        Jeff Buckley
Song:        Eternal Life
Instrument:  Guitar

I've looked for loads of Jeff Buckley Stuff On The Net , This is 100% correct.
Figure out how many times to strum each chord yourself

INTRO
e------------------------
b------------------------
g------------------------
d------------------------
a-5-5-5-5-5-7-5-7-5-7-5-7
e-0-0-0-0-0-0-0-0-0-0-0-0    

e----
b---0
g-4-0      This Is The Bit Just after The Intro
d-2-4
a-2-5
e----  

VERSE
e-----------------------
b-----------------------
g---0--0---------0---0--
d--2--2---0--0--0---0--
a-3--3---2--2--4---4---
e-------3--3--5---5----

CHORUS
e---------0-0-0-0
b---------3-3-3-3
g-4-6-7-9-0-0-0-0
d-x-x-x-x-0-4-0-4
a-2-4-5-7-2-0-2-0
e----------------

THIS IS THE BIT AFTER THE SECOND COURSE

e-2---x------
b-3-2-x------
g-2-2-7-9-7-9
d-0-2-x-x-x-x
a---0-5-7-5-7
e-----0-0-0-0


e--------------------------------------
b--------------------------------------
g-6-5-----4----------------------------
d-x-x-4-3-4-----------2-1--------------
a-4-3-x-x-2--0-0-0-0-0----5-4-0-0-0-0-0   REPEAT THE PLUCKING BIT BY 4
e-----2-1------------------------------

THIS BIT IS THE "THERES NO TIME FOR HATRED ONLY ......."

e--------------------------------------
b--------------------------------------
g---0--0-0--0--0-0------------2--2--2--
d--2-2--2--2-2--2----2--2-2------------
a-4---4---3---3-----4-4--4---3-3-------
e------------------2---2----1---1--3---

THIS BIT IS THE "WHAT IS LOVE " WHERE IS HAPP....."

e----------  -e----------
b----------  -b---------
g-4-2------  -g-7-9-------     This Bit x4
d-4-2-5-3--  -d-x-x------
a-2-0-5-3--  -a-5-7-------
e-----3-1--  -e--------

I DONT KNOW THE SOLO, Heres The End Bit

e---------------------------------------
b----------------------------17b-17b-17b
g------------------------------------------7-9
d-5-7-9-10-12-14-16-17---------------------x-x
a-x-x-x-x---x--x--x--x---------------------5-7
e-3-5-7-8--10-12-14-15---------------------0-0

THATS IT, ENJOY!!!!!!!!
===========
Eternal Life by Jeff Buckley 
Album: Grace 
Transcription by: Jim Ferraiolo (jmferraiolo@hcacad.holycross.edu) 

I don't know how many times I have requested Jeff Buckley stuff on the  
TAB newsgroups and such.  Nobody seems to have the desire or skill to 
transcribe anything he has done.  I worked hard on this: a transcription 
of a complex song by one of today's great artists.  If anyone else has 
any Jeff Buckley tab that's NOT on the homepage (I am especially looking 
for Last Goodbye (it's in dropped-D, and I haven't gotten around to 
working it out yet)) or if you have the musical ear and the CD to attempt 
transcribing some of his stuff, please, I want to hear from you.  If you 
use and like this transcription, please e-mail me.  It did take me  
substantially longer than transcribing some stupid Green Day or Nirvana 
song.   

Opening intro part:  

Play with treble pickup and keep a steady drone on the E string.  Follow 
the rhythm of the recording to get it exact, but this is all it is, really. 

A---5h7-------------- 
E---0---------------- 

Then comes the really noisy part.  I don't think anyone except Jeff himself 
could decipher this.  Just make a lot of noise around the key of E and 
throw in some octaves high up on the neck.  Then slide into the verse  
progression.  If you're playing it like the acoustic version on Live   
at the Sin E, then you dont include the noise.  Just do some sliding 
7#9th chords or something. :) 

Chords used: 

Cmaj7:   X32000 
Gmaj7:   320030 
Fmaj7:   XX2310 
A:       X02220 
Asus2:   X02200 
A7sus4 : 002030 *not sure about this chord name* 
Em7:     022030 
D/F#:    2X023X 


Verse notes:  

The Fmaj7 is quick, but it IS in there.  It's played on the 4 beat of the  
Gmaj7 measure.  Listen to the recording, again, to get the rhythm. 
Also, I am not sure what the A chord is, but it is some kind of A chord. 
Usually, I use the sus2 form or a powerchord.   

[Cmaj7, Gmaj7, Fmaj7, A(Asus2, A7sus4)] 

Eternal Life is now on my trail 
Got my red glitter coffin, man, just need one last nail 
While all these ugly gentlemen play out their foolish games 
There's a flaming red horizon that screams our names 

[Gmaj7] 
And as your fantasies are broken in two, 
[Em7] 
Did you really think this bloody road would pave the way for you? 
[D/F#]                                   [Asus2] 
You better turn around and blow your kiss hello to life eternal, angel 

There is a little fill that goes underneath the A chords.  It is played 
by a second guitar.  It's played in all the verses I think. 

E----------------- 
B----------------- 
G--------0-------- 
D------0---0---0-- 
A----4-------4---- 
E--5-------------- 


Then repeat the intro hammer on E drone thingy before going into the 
2nd verse. 

[Cmaj7, Gmaj7, Fmaj7, A(Asus2, A7sus4)] 

Racist everyman, what have you done? 
Man, you've made a killer of your unborn son... 
Crown my fear your king at the point of a gun 
All I want to do is love everyone... 

[Gmaj7] 
And as your fantasies are broken in two 
[Em7] 
Did you really think this bloody road would pave the way for you? 
[D/F#]                                   [Asus2] 
You better turn around and blow your kiss hello to life eternal.... 

Bridge: 

This is where it gets hairy.  While Jeff is screaming, I think he plays  
something like this: 

C#m7dim5 : X42000  (Just like a Cmaj7, except with a C# root) 
Cmaj7:     X32000 
F#7sus4:   244300  (Just like an F# major barre chord, leave last 2 open) 
Fmaj7:     133200  (Ditto, F major barre) 
B:         X2444X 

The Heeeeeeeeeeyyyyyyyyyyyyyyyyaaaaay part (sorry, didn't know what else 
to call it) goes something like this: 

A octave: 5X7XXX and then 2 single notes on the A string.  Strum the octave 
a bit then throw in that E and Eb.   

D--7----------- 
A-------7--6--- 
E--5----------- 

During this next part, instead of strumming out the bridge chords, the 
chords are picked, usually omitting the open E string though.  Once again, 
listening to the recording will help you get it perfect.   

[C#m7dim5] [Cmaj7]  [F#7sus4]   [Fmaj7] 
There's no time for hatred, only questions 


Okay everyone, its powerchord time! Yippee! 

B5:  X244XX 
A5:  X022XX 
G5:  355XXX 
F5:  133XXX 
E5:  022XXX 
E/F5:033XXX 

[B5] 
What is love?  
[A5] 
Where is happiness?  
[G5] 
What is life?  
[F5] 
Where is peace? 

[E5,E/F5, E5,E/F5]  (just keep slidin' it and workin' it)  
When will I find the strength to bring me release? 
                                                                        
[Cmaj7, Gmaj7, Fmaj7, A(Asus2, A7sus4)] 
Tell me where is the love in what your prophet has said?   [Lead 1] 
Man, it sounds to me just like a prison for the walking dead [Lead 2] 
And I've got a message for you and your twisted hell [Lead3] 
You better turn around and blow your kiss goodbye to life eternal angel... 

Leads: 

These aren't exact.  Make something up in E-minor pentatonic if you don't 
like these. 

b= bend 
r= release 
v= vibrato 
h= hammer 
p= pull 

Lead 1 (with heavy arm vibrato)  

G---12--14--14--12--14--14--12-14-14b15---r14---12h14p12--14p12-----  
D---------------------------------------------------------------14-- 

Lead 2 

D---14b15--14b15--14b15--12--14b15--14------------ 
A----------------------------------------14--12--- 

Lead 3 

E--------------------17----------------- 
B------15bvvvv17r15-----15bvvvv17r15---- 

Repeat chorus progression 2 times over Jeff's singing and end on the  
E hammer drone thing. 

If you have a better transcription, or you see something that needs to 
be fixed, feel free to add on to this file but do not change what I have 
done.  Thanks. ====
I want to post or [tab]
guest
You may want to rate the tab now too:
select rating
Please do not post tabs as comments. Select "correction" instead!