Oops, an error
Loading. Please wait.

Jato Unit Tab

ver2
ver2

Whole song

More versions @911Tabs.com
11,184 views 21 this week
4 commentsread comments
1 2 3 4 5
accurate
x 7
add to favorites launch autoscroll
font size
0
reset
Autoscroll
+/-
esc
set tempo
stop
Contributor
Difficulty
Tuning
advanced
D# G# C# F# A# D#
WARNING: You are trying to view
                                    content from Ultimate-Guitar.com
                                    in an unauthorized application,
                                    which is prohibited.

                                    Please use an official Ultimate
                                    Guitar Tabs application for iPhone,
                                    iPad or Android to access legitimate
                                    chords, guitar, bass, and drum tabs
                                    from Ultimate-Guitar.com database.

                                    Type "ultimate guitar tabs" in Apple
                                    App Store's or Android Market's
                                    search to find the application.
BE GRATEFUL THIS TOOK OVER 3 HOURS TO TAB
Jato unit EMG performance version
Jeff Loomis
Zero Order Phase

Tuned low to high
Bb Eb G# C# F# Bb Eb
basically half step down

ALL IN ORDER

NOTE: IM PLAYING THE VERSION FROM WHEN HE PLAYED IT AT EMG, LOOK UP VIDEO BEFORE LOOKING 
BASICALLY THE SAME CEPT ONE PART)

Intro (play 3 times)
|-----------------------|
|-----------------------|
|-----------------------|
|-----------------------|
|-8-----8----8----------|
|---7-0--7-0--7-0-7-5-0-|
|-----------------------|

After intro riff
|----------------------|
|----------------------|
|----------------------|
|----------------------|
|-8-----8---9---9------|
|---7-0--7-0-8-0-8-0---|
|----------------------|

Same as intro riff but on 7th string (play 3 times)
|-----------------------|
|-----------------------|
|-----------------------|
|-----------------------|
|-----------------------|
|-8-----8----8----------|
|---7-0--7-0--7-0-7-5-0-|

|-------------------------------|
|-------------------------------|
|-------------------------------|
|-------------------------------|
|-------------------------------|
|-8-----8---9---9---------------|
|---7-0--7-0-8-0-8-0----3-6-5-2-|

Octave lick
|--------------------------------------------------------------------------|
|--------------------------------------------------------------------------|
|18-16-14-13-14-11-11/13-11-13-13/14-13-11-11/13-7-6--6-7-6-9-6-9-11-10-11-|
|--------------------------------------------------------------------------|
|16-14-12-11-12-9--9/11--9--11-11/12-11-9--9/11--5-4--4-5-4-7-4-7-9--8--9--|
|--------------------------------------------------------------------------|
|--------------------------------------------------------------------------|

|--------------------------------------------------------------------------|
|--------------------------------------------------------------------------|
|13-11-13-13/14-13-11-11/13---21-19-17-16-17-16/17-14-16-16/17-16-17-17/19-|
|--------------------------------------------------------------------------|
|11-9--11-11/12-11-9--9/11----19-17-15-14-15-14/16-12-14-14/15-14-15-15/17-|
|--------------------------------------------------------------------------|
|--------------------------------------------------------------------------|

|------------------------------------9101212121091012109---------------------|
|------10b-10-9-10-10b-10-9-9101210910-----------------12109-----------------|
|19-17~----------------------------------------------------910121091012109---|
|------------------------------------------------------------------------11~-|
|17-15~----------------------------------------------------------------------|
|----------------------------------------------------------------------------|
|----------------------------------------------------------------------------|

transition riff to first solo (w/ palm muting)
|-----------------------------|
|-----------------------------|
|-----------------------------|
|-----------------------------|
|-----------------------------|
|4-444-4-44444-4--------------|
|2-222-2-22222-2--------------| And so on...

First solo
|-------99109--109------9---------------------------------------------------|
|12b-12~-----13---131013-131091013109--109----------------------------------|
|------------------------------------11---11107-----------------------------|
|----------------------------------------------1110710-10/11-111211------11-|
|------------------------------------------------------------------141214---|
|---------------------------------------------------------------------------|
|---------------------------------------------------------------------------|


|-----------------------------------------------------------------|
|----------------------------------------------------------141617-|
|----------------------------11----------111314131416141416-------|
|----------11----------111214--1412111214-------------------------|
|1412111214--1412111214-------------------------------------------|
|-----------------------------------------------------------------|
|-----------------------------------------------------------------|

(end of solo)
Legato lick, in other words, hammer ons and pull offs
|14h16h17p16p14-16h17h19p17p16/14h16h17p16p14----14-14-17-16-14-19----|
|---------------------------------------------17b-----------------18~-|
|---------------------------------------------------------------------|
|---------------------------------------------------------------------|
|---------------------------------------------------------------------|
|---------------------------------------------------------------------|

Now to the rest of the song..

|--------------------------------------------------------161916--------|
|18-19-21-21b-18-19-21-15------------------------------18------18------|
|--------------------------1316191613-1316191613-131619----------1916~-|
|----------------------------------------------------------------------|
|----------------------------------------------------------------------|
|----------------------------------------------------------------------|
|----------------------------------------------------------------------|

                                  /      tap      \
|-------------------------1819-24-21-24-21-24-21-21191719211917-------------|
|21b-21-19-18-19-21-191819------------------------------------201817--------|
|------------------------------------------------------------------201817---|
|-----------------------------------------------------------------------14~-|
|---------------------------------------------------------------------------|
|---------------------------------------------------------------------------|
|---------------------------------------------------------------------------|

|--------------------------------------78108781087----------|
|10b-10b-10-10b-10-10b-10-12b-10-781087-----------88810876~-|
|-----------------------------------------------------------|
|-----------------------------------------------------------|
|-----------------------------------------------------------|
|-----------------------------------------------------------|
|-----------------------------------------------------------|

Mainly pull offs
|10p7-10p7-11p8-10p7-11p8-12p9-11p8-12p9-------------------------------------|
|----8----8----9----8----9---10----9----10-15131213151312-1113141311---------|
|------------------------------------------------------------------13-121213-|
|----------------------------------------------------------------------------|
|----------------------------------------------------------------------------|
|----------------------------------------------------------------------------|
|----------------------------------------------------------------------------|

|------------|
|------------|
|1513121312--
|----------14-|
|-------------|
|-------------|
|-------------|

Warped blues scale
|---------------------------------------------------19---------------------|
|22b-22b22-22b22-22b22-23b-22~18221918221918-22-22-22-22191819221918-------|
|-------------------------------------------------------------------221918-|
|--------------------------------------------------------------------------|
|--------------------------------------------------------------------------|
|--------------------------------------------------------------------------|
|--------------------------------------------------------------------------|

|----------1819221918h19p18------------------------------------------------|
|-----181922--------------22191819221918-----------------------------------|
|181922--------------------------------22-22-22-22191819221918-------18-22-|
|------------------------------------------------------------22-19-22------|
|--------------------------------------------------------------------------|
|--------------------------------------------------------------------------|
|--------------------------------------------------------------------------|

|12p9-12p9-11p8-11p8-10p7-10p7-9p6-9p6-11p8-11p8-10p7-10p7-9p6-9p6-8p5-8p5-9-|
|---11---11---10---10----9----9---8---8---10---10----9----9---8---8---7---7--|
|----------------------------------------------------------------------------|
|----------------------------------------------------------------------------|
|----------------------------------------------------------------------------|
|----------------------------------------------------------------------------|
|----------------------------------------------------------------------------|

|---------------------------------------------------------------------------|
|24b-24-22-21-22-19-19/21-19-21-21b-21-19-21-19b-14-15-14-14/18-15-18-19-18-|
|----------------------------------------------19---------------------------|
|---------------------------------------------------------------------------|
|---------------------------------------------------------------------------|
|---------------------------------------------------------------------------|
|---------------------------------------------------------------------------|

|---------------------------------------------------------------------------|
|19-19b-19-18-19------------------------------------------------------------|
|---------------------------------------------------------------------------|
|---------------------------------------------------------------------------|
|---------------------------------------------------------------------------|
|---------------------------------------------------------------------------|
|---------------------------------------------------------------------------|

Transition riff again...
|-----------------------------|
|-----------------------------|
|-----------------------------|
|-----------------------------|
|-----------------------------|
|4-444-4-44444-4--------------|
|2-222-2-22222-2--------------| And so on... again

Diminished run
|------------------------------161916------222018--------211917--------------|
|----------------------------18------18---------2119171921----20181619211917-|
|1316191613-1316191613-131619----------1916~---------------------------------|
|----------------------------------------------------------------------------|
|----------------------------------------------------------------------------|
|----------------------------------------------------------------------------|

|--------------------------------------78108781087----------|
|10b-10b-10-8781087857~----------781087-----------88810876~-|
|-----------------------------------------------------------|
|-----------------------------------------------------------|
|-----------------------------------------------------------|
|-----------------------------------------------------------|
|-----------------------------------------------------------|

More crazy pull offs
|10p7-10p7-11p8-10p7-11p8-12p9-11p8-12p9-13p10-12p9-15p12-16p13-19p16-21b~--|
|----8----8----9----8----9---10----9----10--------10----13----14----17------|
|---------------------------------------------------------------------------|
|---------------------------------------------------------------------------|
|---------------------------------------------------------------------------|
|---------------------------------------------------------------------------|
|---------------------------------------------------------------------------|

Warped thing again
|---------------------------------------------------19---------------------|
|22b-22b22-22b22-22b22-23b-22~18221918221918-22-22-22-22191819221918-------|
|-------------------------------------------------------------------221918-|
|--------------------------------------------------------------------------|
|--------------------------------------------------------------------------|
|--------------------------------------------------------------------------|
|--------------------------------------------------------------------------|

|----------1819221918h19p18------------------------------------------------|
|-----181922--------------22191819221918-----------------------------------|
|181922--------------------------------22-22-22-22191819221918-------18-22-|
|------------------------------------------------------------22-19-22------|
|--------------------------------------------------------------------------|
|--------------------------------------------------------------------------|
|--------------------------------------------------------------------------|

Arpeggios
|16p12-16p12--12---------------------------12-16p12--16p12p--17p12-|
|-----------14--14--14-------------------14--------14--------------|
|-----------------13--13--13-----------13--------------------------|
|-----------------------14--14-------14----------------------------|
|-----------------------------16-11-16-----------------------------|
|------------------------------------------------------------------|
|------------------------------------------------------------------|

|15p12--15p12--------------------------------------12-15/21\15p12-15p12---|
|-----14-----14-----14-13-12-11--11--11-14-------14--------------------14-|
|--------------15-12-----------14--12-------12-15-------------------------|
|------------------------------------14-11-14-----------------------------|
|-------------------------------------------------------------------------|
|-------------------------------------------------------------------------|
|-------------------------------------------------------------------------|

|14p11--14p11---------------------------11-14p11--14p11--15p11---|
|-----12-----12--12-------------------12--------12-----12-----12-|
|--------------11--11--11-----------11---------------------------|
|--------------------13--13-------13-----------------------------|
|--------------------------14-9-14-------------------------------|
|----------------------------------------------------------------|
|----------------------------------------------------------------|

|13p10--13p10-------------------------------------------10-13/19\13p10---|
|-----12-----12-----12-11-10-9--10----------9-12------12--------------12-|
|--------------13-10----------13--11-------------10-13-------------------|
|-----------------------------------13-10-13-----------------------------|
|------------------------------------------------------------------------|
|------------------------------------------------------------------------|
|------------------------------------------------------------------------|

Sweepies
|-17-14---------14-17-14----------------------14-17-14------14-|
|-------15---15--------15-----------------15---------15---15---|
|---------14-------------14-------------14-------------14------|
|--------------------------16----------16----------------------|
|-----------------------------17-12-17-------------------------|
|--------------------------------------------------------------|
|--------------------------------------------------------------|

|-16-14-------14-17-14-------14-19-14-------14-17-14--------14-|
|------15---15--------15---15--------15---15--------15----15---|
|---------14-------------14-------------14-------------14------|
|--------------------------------------------------------------|
|--------------------------------------------------------------|
|--------------------------------------------------------------|
|--------------------------------------------------------------|

|-17-14-------14-17-14-------14-17-14-------14-17-14--------14-|
|------15---15--------15---15--------15---15--------15----15---|
|---------14-------------14-------------14-------------14------|
|--------------------------------------------------------------|
|--------------------------------------------------------------|
|--------------------------------------------------------------|
|--------------------------------------------------------------|

|-16-14-------14-17-14-------14-19-14-------14-17-14--------14-|
|------15---15--------15---15--------15---15--------15----15---|
|---------14-------------14-------------14-------------14------|
|--------------------------------------------------------------|
|--------------------------------------------------------------|
|--------------------------------------------------------------|
|--------------------------------------------------------------|

|-18-15-------15-18-15-------15-18-15-------15/21-17--------18-|
|------17---17--------17---17--------17---17--------20----20---|
|---------15-------------15-------------15-------------18------|
|--------------------------------------------------------------|
|--------------------------------------------------------------|
|--------------------------------------------------------------|
|--------------------------------------------------------------|

|-21/18--15------15--18/15--12-------12-9-----9-12-|
|----------17--17-------------14--14-----11-11-----|
|------------15-----------------12---------9-------|
|--------------------------------------------------|
|--------------------------------------------------|
|--------------------------------------------------|
|--------------------------------------------------|

|-10-5-----------5/14-10-------------------10/17-14------14-17-14------14-22-|
|-----7---------7-------10--------------10--------15---15--------15--15------|
|------7-------7----------11-----------11------------14------------14--------|
|-------7-----7-------------12-------12--------------------------------------|
|--------9-5-9----------------12-9-12----------------------------------------|
|----------------------------------------------------------------------------|
|----------------------------------------------------------------------------|

Riffage!! (2X)
|---------------------------------------|
|---------------------------------------|
|---------------------------------------|
|---------------------------------------|
|10-10---10-10---10-10------------------|
|9--9----9--9----9--9-------------------|
|-----2-2-----2-2-----2-2-0-2-3-2-5-2-3-|

Trade off little solos
|---------------------------20-17--------------------------|
|--------------------------------19-----19-18-17-16--16----|
|----------------------------------20-17-----------19--17--|
|----------------------------------------------------------|
|----------------------------------------------------------|
|----------------------------------------------------------|
|4-5-4-4-4-4-4-4-4-5-4-4-----------------------------------|


Do Riff above again an do this sweepafter next swap
----------16-19-19--------|
--------18--------18------|
13-16-19------------19-16-|
--------------------------|
--------------------------|
--------------------------|
--------------------------|

Same thing but do this one
|22-19--------------------------------------------19-22b~~-|
|-----21-----21-20-19-18--18----------18-21-----21---------|
|-------22-19-----------21--19-------------19-22-----------|
|-----------------------------21-18-21---------------------|
|----------------------------------------------------------|
|----------------------------------------------------------|
|----------------------------------------------------------|

kind of chord-like lick
|--------------------------------------------|
|--------------------------------------------|
|---10-----9----9-----8---7------7----6--6---|
|-8----8-8---7----7-7---6----6-6---5----5-5--|
|9-9--9-9-9-8-8--8-8-8-7-7--7-7-7-6-6--6-6-6-|
|--------------------------------------------|
|--------------------------------------------|

sorry if this part is a little sloppy, i was getting confused
|---------------------------------------------|
|---------------------------------------------|
|---10---10-----9--9--9----8--8--7---7---7--6-|
|-8----8---8-7----7-7---6----6-5----5-4----4--|
|9-9--9-9-9-8-8--8-8-8-7-7--7-6-6--6-5-5--5---|
|---------------------------------------------|
|---------------------------------------------|


Arpeggios again
|16p12-16p12--12---------------------------12-16p12--16p12p--17p12-|
|-----------14--14--14-------------------14--------14--------------|
|-----------------13--13--13-----------13--------------------------|
|-----------------------14--14-------14----------------------------|
|-----------------------------16-11-16-----------------------------|
|------------------------------------------------------------------|
|------------------------------------------------------------------|

|15p12--15p12--------------------------------------12-15/21\15p12-15p12---|
|-----14-----14-----14-13-12-11--11--11-14-------14--------------------14-|
|--------------15-12-----------14--12-------12-15-------------------------|
|------------------------------------14-11-14-----------------------------|
|-------------------------------------------------------------------------|
|-------------------------------------------------------------------------|
|-------------------------------------------------------------------------|

|14p11--14p11---------------------------11-14p11--14p11--15p11---|
|-----12-----12--12-------------------12--------12-----12-----12-|
|--------------11--11--11-----------11---------------------------|
|--------------------13--13-------13-----------------------------|
|--------------------------14-9-14-------------------------------|
|----------------------------------------------------------------|
|----------------------------------------------------------------|

|13p10--13p10-------------------------------------------10-13/19\13p10---|
|-----12-----12-----12-11-10-9--10----------9-12------12--------------12-|
|--------------13-10----------13--11-------------10-13-------------------|
|-----------------------------------13-10-13-----------------------------|
|------------------------------------------------------------------------|
|------------------------------------------------------------------------|
|------------------------------------------------------------------------|

Play twice
12p9-12p9-11p8-11p8-10p7-10p7-9p6-9p6-11p8-11p8-10p7-10p7-9p6-9p6-8p5-8p5-10-|
---11---11---10---10----9----9---8---8---10---10----9----9---8---8---7---7---|
|----------------------------------------------------------------------------|
|----------------------------------------------------------------------------|
|----------------------------------------------------------------------------|
|----------------------------------------------------------------------------|
|----------------------------------------------------------------------------|

last riffs
|--------------------------------------------------------------------------|
|--------------------------------------------------------------------------|
|--------------------------------------------------------------------------|
|--------------------------------------------------------------------------|
|--------------------------------------------------------------------------|
|--------------------------------------------------------------------------|
|4-7-6-3-3-3-33-3-33-3-3-7-6-4-4-3-4-4-4-44-4-4-7-6-3-3-3-33-3-33-33-7-6-4-|


|---------------------|
|---------------------|
|---------------------|
|---------------------|
|---------------------|
|------6-6-66-6-6-----|
|4-3-4-4-4-44-4-4/0---|
4 comments total. Showing first comments.
0 reply
XianXiuHong wrote on August 22 2009, 06:53 pm

Awesome tab man!

0 reply
buckethead_jr wrote on August 31 2009, 03:17 pm

Excellent tab. If I were to suggest something though, there are quite a few sections where it is difficult to read clearly as the notes are spaced too closely together. 5*'s though.

+1 reply
dopelope wrote on September 7 2010, 03:01 pm

my face just melted.....

I want to post or [tab]
guest
You may want to rate the tab now too:
select rating
Please do not post tabs as comments. Select "correction" instead!