Oops, an error
Loading. Please wait.

Well Ok Honey Tab

2,319 views 24 this week
1 commentread comment
1 2 3 4 5
excellent!
x 2
add to favorites launch autoscroll
font size
0
reset
Autoscroll
+/-
esc
set tempo
stop
Contributor
WARNING: You are trying to view
                                    content from Ultimate-Guitar.com
                                    in an unauthorized application,
                                    which is prohibited.

                                    Please use an official Ultimate
                                    Guitar Tabs application for iPhone,
                                    iPad or Android to access legitimate
                                    chords, guitar, bass, and drum tabs
                                    from Ultimate-Guitar.com database.

                                    Type "ultimate guitar tabs" in Apple
                                    App Store's or Android Market's
                                    search to find the application.
-------------------------------------------------------------------------------
                             WELL OK HONEY - Jenny O
-------------------------------------------------------------------------------
Tabbed by:Rob Freeman
E-mail:Rob.Freeman1@Hotmail.com

Tuning:Standard

0:50 Verse

e|----------------------2------------------3---2-----------------------------|
B|-------------------1------------------1--------1---------------------------|
G|---------------2-------------------2--------------2------------------------|
D|-----------0--------------------0-------------------0----------------------|
A|---------------------------------------------------------------------------|
E|---------------------------------------------------------------------------|

e|------------------2----------------3-----2---------------------------------|
B|---------------1----------------1-----------1------------------------------|
G|------------2----------------2-----------------2---------------------------|
D|--------0-----------------0-----------------------0------------------------|
A|---------------------------------------------------------------------------|
E|---------------------------------------------------------------------------|

e|----------------------------------1----------------2----------3---2--------|
B|-----------------------------3------------------1----------1--------1------|
G|---------------------------------------------2----------2-------------2----|
D|------------------------------------------0--------------------------------|
A|----------------------2----------------------------------------------------|
E|------3--------------------------------------------------------------------|
1:10
e|---------------------------------------------------------------------------|
B|---------------------------------------------------------------------------|
G|-----5-----5----4----2----4--------------------5----5----4----2----4-------|
D|------------------------------3--4--3--4------------------------------3--4-|
A|---------------------------------------------------------------------------|
E|---------------------------------------------------------------------------|

e|---------------------------------------------------------------------------|
B|---------------------------------------------------------------------------|
G|--3--4---0-----------------------------------------------------------------|
D|-------------3----0--------------------------------------------------------|
A|---------------------------------------------------------------------------|
E|---------------------------------------------------------------------------|
                             Baby, Baby       Tell me where you are
e|---------2-------------2-----------------2-------------------------3--2----|
B|---------1-------------1-----------------1-------------------------1--1----|
G|---------2-------------2-----------------2-------------------------2--2----|
D|---------0-------------0-----------------0-------------------------0--0----|
A|---------------------------------------------------------------------------|
E|---------------------------------------------------------------------------|

e|--------------------3-------------1--------1-------------------------------|
B|----------------3----------------------------------------------------------|
G|---------------------------------------------------------------------------|
D|-------------------------------0--------0----------------------------------|
A|---------2-----------------------------------------------------------------|
E|-------3-------------------------------------------------------------------|

e|----------------------2------------------3---2-----------------------------|
B|-------------------1------------------1--------1---------------------------|
G|---------------2-------------------2--------------2------------------------|
D|-----------0--------------------0-------------------0----------------------|
A|---------------------------------------------------------------------------|
E|---------------------------------------------------------------------------|
Well OK Honey.........
e|----------------------2------------------3---2-----------------------------|
B|-------------------1------------------1--------1---------------------------|
G|---------------2-------------------2--------------2------------------------|
D|-----------0--------------------0-------------------0----------------------|
A|---------------------------------------------------------------------------|
E|---------------------------------------------------------------------------|
Ain't got no money.....
e|----------------------2------------------3---2-----------------------------|
B|-------------------1------------------1--------1---------------------------|
G|---------------2-------------------2--------------2------------------------|
D|-----------0--------------------0-------------------0----------------------|
A|---------------------------------------------------------------------------|
E|---------------------------------------------------------------------------|
I am a Hippie...........
e|---------------------------------------------------------------------------|
B|---------------------------------------------------------------------------|
G|-----------------------7--------9---10-----9-------------------------------|
D|---------------------------------------------------------------------------|
A|---------------------------------------------------------------------------|
E|---------------------------------------------------------------------------|
Second Solo:
e|---------------------------------------------------------------------------|
B|----------------------------------------------------5----------------------|
G|--------------------------------------7---7--5--7-------5-------7--5--7----|
D|---------------------------------------------------------------------------|
A|------------55--55--55--55--5-5--------------------------------------------|
E|--------5------------------------------------------------------------------|

e|-----------------------------------7b-7b-7b-7-7-----10---------------------|
B|--7--------------------6--8----------------------------10------------------|
G|---------5----7------------------------------------------------------------|
D|---------------------------------------------------------------------------|
A|---------------------------------------------------------------------------|
E|---------------------------------------------------------------------------|
*Claps*
e|----------------------2------------------3---2-----------------------------|
B|-------------------1------------------1--------1---------------------------|
G|---------------2-------------------2--------------2------------------------|
D|-----------0--------------------0-------------------0----------------------|
A|---------------------------------------------------------------------------|
E|---------------------------------------------------------------------------|
                    Into another, I hope  you understand
e|---------------------2------2------------2-------3---2------------------------|
B|----------------1-----------1------------1-------1---1------------------------|
G|-----------2----------------2------------2-------2---2------------------------|
D|-------0--------------------0------------0-------0---0------------------------|
A|------------------------------------------------------------------------------|
E|------------------------------------------------------------------------------|
  I'll need you later,   I want you in my band
e|--------2---------2---2-----------2-------------2---2----------------------|
B|--------1---------1---1-----------1-------------1---1----------------------|
G|--------2---------2---2-----------2-------------2---2----------------------|
D|--------0---------0---0-----------0-------------0---0----------------------|
A|---------------------------------------------------------------------------|
E|---------------------------------------------------------------------------|
I am your Sister.....
e|---------------------------------------------------------------------------|
B|---------------------------------------------------------------------------|
G|-----------------------7--------9---10-----9-------------------------------|
D|---------------------------------------------------------------------------|
A|---------------------------------------------------------------------------|
E|---------------------------------------------------------------------------|

e|------2--2--------2--------2--2---------2-------------------------------------|
B|------1--1--------1--------1--1---------1-------------------------------------|
G|------2--2--------2--------2--2---------2-------------------------------------|
D|------0--0--------0--------0--0---------0-------------------------------------|
A|------------------------------------------------------------------------------|
E|------------------------------------------------------------------------------|
Outro:
e|---------------------------------------------------------------------------|
B|---------------------------------------------------------------------------|
G|------------2--2--2----------------2-----0--0--0---2------0----2-----------|
D|-----------------------3--2----------3-----------------3-----------3---0---|
A|---------------------------------------------------------------------------|
E|---------------------------------------------------------------------------|

e|----------------------------2--------3--------3-------------------------------|
B|--------------------------------------------0--0------------------------------|
G|-------------------------2----2----0---0-----------2--------------------------|
D|-------------------------------------------------------------------------0----|
A|--------3----2----0---------------------------------------6b--6b--------------|
E|----------------------------------------------------------5---5-----0--1------|


************************************

| /   slide up
| \   slide down
| h   hammer-on
| p   pull-off
| ~   vibrato
| +   harmonic
| x   Mute note
| b   Bend
| pb  Pre-bend
| br  Bend release
| pbr Pre-bend release
| brb Bend release bend

************************************
comments
We did not receive enough feedback on this tab! Please rate:
1 2 3 4 5
1 comment total.
0 reply
syarifphmy wrote on April 2 2014, 08:41 am

How about this?
e|--------------------2------------------3p2-------------------------------|
B|-----------------1------------------1------3p1---------------------------|
G|-------------2-------------------2--------------2------------------------|
D|---------0--------------------0------------------------------------------|
A|-------------------------------------------------------------------------|
E|-------------------------------------------------------------------------|

e|--------------------------------1----------------2----------3p2----------|
B|---------------------------0------------------1----------1-----3p1-------|
G|-------------------------------------------2----------2-------------2----|
D|------------------0---------------------0--------------------------------|
A|-------------------------------------------------------------------------|
E|----3--------------------------------------------------------------------|

I want to post or [tab]
guest
You may want to rate the tab now too:
select rating
Please do not post tabs as comments. Select "correction" instead!