Oops, an error
Loading. Please wait.

Minstrels Lament Tab

ver1
ver1

Whole song

Interactive

More versions @911Tabs.com
720 views 6 this week
no commentswrite comment
1 2 3 4 5
please rate
Autoscroll
+/-
esc
set tempo
stop
Contributor
Difficulty
novice
Hey! There's an official Ultimate Guitar app which is ideal
for learning songs when you're away from computer. Get the app
WARNING: You are trying to view
                                    content from Ultimate-Guitar.com
                                    in an unauthorized application,
                                    which is prohibited.

                                    Please use an official Ultimate
                                    Guitar Tabs application for iPhone,
                                    iPad or Android to access legitimate
                                    chords, guitar, bass, and drum tabs
                                    from Ultimate-Guitar.com database.

                                    Type "ultimate guitar tabs" in Apple
                                    App Store's or Android Market's
                                    search to find the application.
Artist: Jeremy Soule
Album: The Elder Scrolls IV: Oblivion
Song: Minstrel's Lament
Tabbed by: A Dead Fly


For one guitar with standard tuning

e|----------------|----------------|----------------|----------------|
B|----------------|----------------|----------------|----------------|
G|--3-------------|--3---1---3-----|---------3------|---------3---1--|
D|--4-------------|--4-------1---4-|--1------4------|---------4------|
A|--------6-------|----------------|--1-------------|--6-------------|
E|--------4-------|----------------|----------------|--4-------------|

e|----------------|--6-------------|----------6-----|----------------|
B|----------------|--x-------------|------9-------7-|--9-------------|
G|--3-------------|--3-------------|----------8-----|--8-------------|
D|--1---4---1-----|--4------6------|----------------|--8------8------|
A|----------1-----|---------6------|--6-------------|----------------|
E|----------------|---------4------|----------------|---------6------|

e|----------4-----|--2-------------|----------------|----------------|
B|------7---4---6-|----------------|--6-------4-----|----------------|
G|----------3-----|------3---------|------6---------|--3---1---3-----|
D|----------------|--4-------------|----------------|--------------4-|
A|--6-------------|----------6-----|----------------|----------------|
E|--4-------------|----------------|----------------|----------------|

e|--1-------------|----------------|----------------|--6-------------|
B|------2---4-----|----------------|----------------|--x-------------|
G|----------3-----|----------------|----------------|--3-------------|
D|----------1-----|----------------|----------1-----|--4------6------|
A|----------------|--6-------------|----------------|---------6------|
E|----------------|--4------6---4--|--6---2---------|---------4------|

e|----------6-----|----------------|----------------|----------------|
B|------9-------7-|--9-------------|------7---9---6-|--7-------------|
G|----------8-----|--8-------------|----------------|----------------|
D|----------------|--8------9------|--6-------------|------6---8-----|
A|--6-------------|---------6------|----------------|--------------9-|
E|----------------|----------------|----------------|----------------|

e|----------------|----------------|----------------|----------------|
B|------6---7-----|----------------|----------------|----------------|
G|--------------8-|----------------|----------------|---------6---8--|
D|----------------|--8---6---8-----|---------8------|----------------|
A|--6-------------|--------------9-|--6-------------|----------------|
E|----------------|----------------|----------------|--4-------------|

e|----------------|--6-------------|--9---8---------|-11--13------11-|
B|----------------|--4-------------|----------9--11-|----------------|
G|--8------6---8--|--3-------------|----------------|----------------|
D|--8-------------|---------6------|----------------|--------------8-|
A|----------------|----------------|----------------|----------------|
E|----------------|----------------|----------------|----------------|

e|---------9---8--|--6---8p6p4---6-|-----11---------|--9---8--6--9p8p|
B|----------------|----------------|-----11---------|----------------|
G|----------------|----------------|------8---------|----------------|
D|-----6----------|----------------|------8---------|----------------|
A|-----6----------|----------------|-------------6--|----------------|
E|----------------|----------------|----------------|----------------|

e|6---8p6p4---6---|----------4---6-|--2---4---------|----------------|
B|----------------|--4-------------|-------------7--|-----4----------|
G|----------------|--------------3-|----------------|-----3----------|
D|----------------|----------------|-------------4--|-----1-------6--|
A|----------------|------6---------|----------------|-------------6--|
E|----------------|------4---------|----------------|-------------4--|

e|-----4-------2--|----------------|------4-------2-|----------------|
B|----------------|------4---------|--4-------4-----|--2---4---------|
G|---------1------|----------------|----------------|----------------|
D|----------------|--1-------------|----------------|----------------|
A|----------------|----------------|----------------|----------------|
E|----------------|----------------|----------------|----------------|

e|----------------|----------------|----------------|----------------|
B|--2-------------|----------------|--4-------------|----------------|
G|----------------|--3-------------|----------------|----------------|
D|----------------|----------------|----------------|----------------|
A|----------------|----------------|----------------|----------------|
E|----------------|----------------|----------------|----------------|

e|----------------|----------------|----------------|----------------|
B|--4-------------|--4------6------|--7-----9-------|--11------------|
G|--4-------------|----------------|----------------|----------------|
D|--4-------------|----------------|----------------|----------------|
A|--2-------------|----------------|----------------|----------------|
E|----------------|----------------|----------------|----------------|

e|----------------|----------------|----------------|--4------6------|
B|----------------|----------------|----------------|----------------|
G|----------------|---3-----1------|--3---1---------|--1------3------|
D|----------------|----------------|----------1-----|----------------|
A|----------------|----------------|----------------|----------------|
E|----------------|----------------|----------------|----------------|

e|--4------6------|---------6------|---------6------|---------6---4--|
B|----------------|----------------|----------------|----------------|
G|---------3---1--|---------3------|--1------3------|---------3------|
D|----------------|----------------|----------------|----------------|
A|----------------|----------------|----------------|----------------|
E|----------------|----------------|----------------|----------------|

e|--6---------2p1-|---------6---4--|--6---------2p1-|---------6---4--|
B|------4--4------|--4-------------|------4--4------|----------------|
G|--3-------------|---------3------|--3-------------|----------------|
D|----------------|----------------|----------------|----------------|
A|----------------|----------------|----------------|----------------|
E|----------------|----------------|----------------|----------------|

e|--6-------4-----|-----2p1--------|------6---4-----|--6------4--2p1-|
B|------4---------|-----------4----|----------------|------4---------|
G|----------------|----------------|----------------|----------------|
D|----------------|----------------|----------------|----------------|
A|----------------|----------------|----------------|----------------|
E|----------------|----------------|----------------|----------------|

e|--6-------------|--4---6---------|----------------|------2---1-----|
B|--4-------------|----------4---2-|----------------|--------------2-|
G|--3-------------|----------------|----------------|----------------|
D|----------------|----------------|------3-------1-|----------------|
A|----------------|----------------|--4-------4-----|----------------|
E|----------------|----------------|----------------|----------------|

e|----------------|----------------|--------------2-|--1-------------|
B|--4-------------|----------------|----------------|------2---4-----|
G|------3---1-----|----------------|----------3-----|--------------3-|
D|--------------4-|--3-------1-----|----------------|----------------|
A|----------------|------4---------|--1-------------|----------------|
E|----------------|--------------4-|------2---------|----------------|

e|----------------|----------------|----------------|---------11-----|
B|----------------|---------4------|---2-----4------|--8-------8-----|
G|-----1---3------|----------------|----------------|----------8-----|
D|----------------|----------------|----------------|----------------|
A|----------------|----------------|----------------|----------------|
E|----------------|----------------|----------------|----------------|

e|--10-----8------|--------10------|--6-------------|--------11------|
B|---8-----8------|---------8------|--8------8------|---------8------|
G|---7-----5------|---------7------|--7------5------|---------8------|
D|----------------|----------------|---------5------|----------------|
A|----------------|----------------|----------------|----------------|
E|----------------|----------------|----------------|----------------|

e|--10-----8------|--------10------|--6-------------|--------15------|
B|---8-----8------|---------8------|--8------8------|--------13------|
G|---7-----5------|---------7------|--8------5------|--------12------|
D|----------------|----------------|---------5------|----------------|
A|----------------|----------------|----------------|----------------|
E|----------------|----------------|----------------|----------------|

e|--13-----11-----|--------10------|--8------6------|--------15------|
B|--13------8-----|---------8------|--6------6------|--------13------|
G|--10------8-----|---------7------|--5------3------|--------12------|
D|----------------|----------------|----------------|----------------|
A|----------------|----------------|----------------|----------------|
E|----------------|----------------|----------------|----------------|

e|--13-----11-----|--------10------|----------------|----------------|
B|--13------8-----|---------8------|--10------------|----------------|
G|--10------8-----|---------7------|--10------------|----------------|
D|----------------|----------------|--10------------|----------------|
A|----------------|----------------|---8------------|----------------|
E|----------------|----------------|----------------|----------------|

e|----------------|--8-------------|--11------------|-10--8----------|
B|-------6--------|----------------|----------------|----------------|
G|---5------------|----------------|----------------|----------------|
D|----------------|----------------|----------------|----------------|
A|----------------|----------------|----------------|----------------|
E|----------------|----------------|----------------|----------------|

e|---6-----8------|------------5---|--7---8---------|----------------|
B|----------------|--------5-------|----------------|----------------|
G|----------------|----------------|----------------|----------------|
D|----------------|----------------|----------------|----------------|
A|----------------|----------------|----------------|----------------|
E|----------------|----------------|----------------|----------------|

e|---8-----6---8--|----------------|----------------|---6------------|
B|----------------|---9------------|---8-----6------|----------------|
G|----------------|----------------|----------------|----------------|
D|----------------|----------------|----------------|----------------|
A|----------------|----------------|----------------|----------------|
E|----------------|----------------|----------------|----------------|

e|----------------|----------------|----------------|----------------|
B|----------------|----------------|----------------|----------------|
G|--3-------------|--3---1---3-----|--------3-------|--------3---1---|
D|--4-------------|--4-------1---4-|--1-----4-------|--------4-------|
A|---------6------|----------------|--1-------------|--6-------------|
E|---------4------|----------------|----------------|--4-------------|

e|----------------|--6-------------|----------6-----|----------------|
B|----------------|--x-------------|------9-------7-|--9-------------|
G|--3-------------|--3-------------|----------8-----|--8-------------|
D|--1---4---1-----|--4------6------|----------------|--8------8------|
A|----------1-----|---------6------|--6-------------|----------------|
E|----------------|---------4------|----------------|---------6------|

e|----------4-----|--2-------------|----------------|----------------|
B|------7---4---6-|----------------|--6-------4-----|----------------|
G|----------3-----|------3---------|------6---------|--3---1---3-----|
D|----------------|--4-------------|----------------|--------------4-|
A|--6-------------|----------6-----|----------------|----------------|
E|--4-------------|----------------|----------------|----------------|

e|--1-------------|----------------|----------------|--6-------------|
B|------2---4-----|----------------|----------------|--x-------------|
G|----------3-----|----------------|----------------|--3-------------|
D|----------1-----|----------------|----------1-----|--4------6------|
A|----------------|--6-------------|----------------|---------6------|
E|----------------|--4------6---4--|--6---2---------|---------4------|

e|----------6-----|----------------|----------------|----------------|
B|------9-------7-|--9-------------|------7---9---6-|--7-------------|
G|----------8-----|--8-------------|----------------|----------------|
D|----------------|--8-------------|--6-------------|------6---8-----|
A|--6-------------|---------6------|----------------|--------------9-|
E|----------------|----------------|----------------|----------------|

e|----------------|----------------|----------------|----------------|
B|------6---7-----|----------------|----------------|----------------|
G|--------------8-|----------------|----------------|---------6---8--|
D|----------------|--8---6---8-----|---------8------|----------------|
A|--6-------------|--------------9-|--6-------------|----------------|
E|----------------|----------------|----------------|--4-------------|

e|----------------|----------------|----------------|----------------|
B|----------------|----------------|--6-------------|----------------|
G|--8-------------|----------------|----------------|----------------|
D|--8-------------|----------------|----------------|----------------|
A|----------------|----------------|----------------|----------------|
E|----------------|----------------|----------------|----------------|

e|----------------|----------------|----------------|----------------|
B|----------------|----------------|--6-------------|----------------|
G|----------------|----------------|----------------|----------------|
D|--1-------------|----------------|----------------|----------------|
A|----------------|----------------|----------------|----------------|
E|----------------|----------------|----------------|----------------|

e|----------------|----------------|----------------|----------------|
B|----------------|----------------|--6-------------|----------------|
G|----------------|----------------|--6-------------|----------------|
D|--1-------------|----------------|--8-------------|----------------|
A|----------------|----------------|----------------|----------------|
E|----------------|----------------|----------------|----------------|

e|----------------|----------------|----------------|----------------|
B|----------------|----------------|--6-------------|----------------|
G|--3-------------|----------------|--6-------------|----------------|
D|--1-------------|----------------|--8-------------|----------------|
A|--1-------------|----------------|----------------|----------------|
E|----------------|----------------|----------------|----------------|

e|----------------|----------------|
B|----------------|----------------|
G|--3-------------|----------------|
D|--1-------------|----------------|
A|--1-------------|----------------|
E|----------------|----------------|

Email me at azlizard13@yahoo.com

please give me credit if you use this tab for a video
comments
We did not receive enough feedback on this tab! Please rate:
print report bad tab
1 2 3 4 5
I want to post or [tab]
guest
You may want to rate the tab now too:
select rating
Please do not post tabs as comments. Select "correction" instead!