Oops, an error
Loading. Please wait.

Angel Eyes Tab

ver2
ver2

Whole song

More versions @911Tabs.com
7,369 views 12 this week
5 commentsread comments
1 2 3 4 5
accurate
x 4
Autoscroll
+/-
esc
set tempo
stop
Contributor
Hey! There's an official Ultimate Guitar app which is ideal
for learning songs when you're away from computer. Get the app
WARNING: You are trying to view
                                    content from Ultimate-Guitar.com
                                    in an unauthorized application,
                                    which is prohibited.

                                    Please use an official Ultimate
                                    Guitar Tabs application for iPhone,
                                    iPad or Android to access legitimate
                                    chords, guitar, bass, and drum tabs
                                    from Ultimate-Guitar.com database.

                                    Type "ultimate guitar tabs" in Apple
                                    App Store's or Android Market's
                                    search to find the application.
-------------------------------------------------------------------------------
                             ANGEL EYES - Jerry Cantrell
-------------------------------------------------------------------------------
Tabbed by: Scott Ulrich
Email: l_masterofpuppets_l@hotmail.com


Tune down 1 step (DAFCGD)

First tab.  Kind of longer than it should be but i don't want to use labels    for each
part yet. Can't find this tab anywhere on the net so I thought I'd try.  Great song.
 Comments?

Update May 10th - cleaned up, added more
-----------------
| s  slide up    |
|   slide down  |
| h  hammer-on   |
| p  pull-off    |
| ~  vibrato     |
| +  harmonic    |
| x  Mute note   |
| ^  Hold note   |
-----------------

Intro (clean electric + acoustic)  0:00

Guitar 1&2

|----0----0--0--3----|--3---------------------|--------0-----------|
|----0----0--0--3----|--3--3--x--3----3--3----|--3--3--0-----------|
|----0----0--0--0----|--0--2--x--2----0--0----|--0--0--2-strum 14x-|
|----2----2--2--0----|--0--0--x--0----2--2----|--2--2--2-----------| x2
|----2----2--2--2----|--2--0--x--0----3--3----|--3--3--0-----------|
|----0----0--0--3----|--3---------------------|--------0-----------|


0:15 - Guitar 2 cuts in with distortion
          PM--------------------------------------------------|
        |-----------------------|                       |-----|
        |--------*----------*---|                       |-----|
        |-------12--------12--|                       |-7-----|
        |-------12------- 12--|                       |-7-----|
        |-------10--------10--|                       |-5-----|
        |-0--0-------0--0-------|   *slide out around   |-----|


0:17 (Distorted) + intro continued

|-----------------------|--------------------------|------------|
|-----------------------|--------------------------|------------|
|-----------------------|--------------------------|------------|
|-----------------------|--------------------------|------------|   x2
|-----------------------|-----5--7--7--5--7--7-----|--5--4------|
|--0----3--0--4h5---7---|-----------------------7--|----------5-|

0:32

|-----------------------------|
|-----------------------------|
|-----------------^-----------|
|--5--8--8--7--5--2-----------|
|--5--8--8--7--5--2-----------|
|--3--6--6--5--3--0-----------|

---Intro---

0:49

|-----------------------------|
|-----------------------------|
|-----------------^-----------|
|--5--8--8--7--5--2-----------|
|--5--8--8--7--5--2-----------|
|--3--6--6--5--3--0-----------|

--Intro--

1:06

|--------------|
|--------------|
|--------^-----|
|--7--5--3-----|
|--7--5--3-----|
|--5--3--1-----|

1:09

|-------------------|---------------------------------------------|
|-------------------|---------------------------------------------|
|-------------------|---------------------------------------------|
|-------------------|--------------------------14~----------------|
|-------------------|-----------------------7--12-----------------|
|--5--7--8br--------|--7br----7----5----5h7-----------------------|

|-----------------|-------------------|--------------------|
|-----------------|-------------------|--------------------|
|-----------------|-------------------|--------------------|
|-----------------|-------------------|--------------------|
|--7--5--3--------|-------------------|--------------------|
|--5--3--1--------|--5-----8br--------|--7br----5----5-----|

|------------------------|-----------|------------------------|-----------|
|------------------------|-----------|------------------------|-----------|
|------------------------|-----------|------------------------|-----------|
|------------------------|-----------|------------------------|-----------|
|---------7--8-----------|-----3-----|---------------7--8-----|-----3--2--|
|--5s8----------1--------|--3-----3--|--5----5--5s8--------1--|--3--------|

|------------------------|--------|------------------------|-----------|
|------------------------|--------|------------------------|-----------|
|------------------------|--------|------------------------|-----------|
|------------------------|--------|------------------------|-----------|
|---------------7--8-----|-----3--|---------------7--8-----|-----3--2--|
|--5----5--5s8--------1--|--3-----|--5----5--5s8--------1--|--3--------|

1:37

|-----------------------|--------------------------|------------|
|-----------------------|--------------------------|------------|
|-----------------------|--------------------------|------------|
|-----------------------|--------------------------|------------|
|-----------------------|-----5--7--7--5--7--7-----|--5--4------|
|--0----3--0--4h5---7---|-----------------------7--|----------5-|  x2

1:53

Guitar 1
|-------------------------------------------------|
|-------------------------------------------------|
|------------------------------------------^------|
|---------------------------5--8--8--7--5--2------|
|---------------------------5--8--8--7--5--2------|
|---------------------------3--6--6--5--3--0------|

Guitar 2

|----------------------------|--------------------|
|----------------------------|--------------------|
|--14br----12h14p12----------|--------------------|
|--------------------14--12--|--------------------|
|----------------------------|--14--12--10--------|
|----------------------------|-------------12-----|

--Intro--

2:09

|-----------------------------|
|-----------------------------|
|-----------------^-----------|
|--5--8--8--7--5--2-----------|
|--5--8--8--7--5--2-----------|
|--3--6--6--5--3--0-----------|

--Intro--

2:27

|--------------|
|--------------|
|--------^-----|
|--7--5--3-----|
|--7--5--3-----|
|--5--3--1-----|


2:29

Guitar 1
|-------------------|-----------------------|---------------------------|
|-------------------|-----------------------|---------------------------|
|-------------------|-----------------------|---------------------------|
|-------------------|-----------------------|--------14~----------------|
|-------------------|-----------------------|-----7--12-----------------|
|--5--7--8br--------|--7br----7----5----5h--|--7------------------------|
Guitar 2
|------------------|------------------|---------------------------------------------|
|------17----------|--15----------13--|----------10---------------------------------|
|--14------14--14--|------14--14------|--12--12------10--10--9--10--9--9~--7--7--9--|
|------------------|------------------|---------------------------------------------|
|------------------|------------------|---------------------------------------------|
|------------------|------------------|---------------------------------------------|

Guitar 1
|-----------------|----------------------|
|-----------------|----------------------|
|-----------------|----------------------|
|-----------------|----------------------|
|--7--5--3--------|----------------------|
|--5--3--1--------|-----5-----------8fb--|
Guitar 2
|------------------|----------------------|
|------17----------|--15----------13------|
|--14------14--14--|------14--14-----12fb-|
|------------------|----------------------|
|------------------|----------------------|
|------------------|----------------------|

2:41
Guitar 1
|--------------------------------|-----------|------------------------|-----------|
|--------------------------------|-----------|------------------------|-----------|
|--------------------------------|-----------|------------------------|-----------|
|--------------------------------|-----------|------------------------|-----------|
|-----------------7--8-----------|-----3-----|---------------7--8-----|-----3--2--|
|--5--5--5-5s8----------1--------|--3-----3--|--5----5--5s8--------1--|--3--------|
Guitar 2
|--------------------------------|-----------|------------------------|-------------------|
|--------------------------------|-----------|------------------------|-------------------|
|--------------------------------|-----------|------------------------|-14-16--14-16-14-16|
|--------------------------------|-----------|------------------------|-------------------|
|--------------------------------|-----------|------------------------|-------------------|
|--------------------------------|-----------|------------------------|-------------------|

Guitar 1
|------------------------|--------|------------------------|-----------|
|------------------------|--------|------------------------|-----------|
|------------------------|--------|------------------------|-----------|
|------------------------|--------|------------------------|-----------|
|---------------7--8-----|-----3--|---------------7--8-----|-----3--2--|
|--5----5--5s8--------1--|--3-----|--5----5--5s8--------1--|--3--------|
Guitar 2
|------------------------|--------|------------------------|-------------------|
|------------------------|--------|------------------------|-------------------|
|------------------------|--14fb--|--hold-bend-------------|-14-16--14-16-14-16|
|------------------------|--------|------------------------|-------------------|
|------------------------|--------|------------------------|-------------------|
|------------------------|--------|------------------------|-------------------|

Guitar 1
|------------------------|--------|------------------------|-----------|
|------------------------|--------|------------------------|-----------|
|------------------------|--------|------------------------|-----------|
|------------------------|--------|------------------------|-----------|
|---------------7--8-----|-----3--|---------------7--8-----|-----3--2--|
|--5----5--5s8--------1--|--3-----|--5----5--5s8--------1--|--3--------|
Guitar 2
|------------------------|--------|------------------------|-------------------|
|------------------------|--------|------------------------|-------------------|
|------------------------|--14fb--|--hold-bend-------------|-14-16--14-16-14-16|
|------------------------|--------|------------------------|-------------------|
|------------------------|--------|------------------------|-------------------|
|------------------------|--------|------------------------|-------------------|

Guitar 1
|------------------------|--------|------------------------|-----------|
|------------------------|--------|------------------------|-----------|
|------------------------|--------|------------------------|-----------|
|------------------------|--------|------------------------|-----------|
|---------------7--8-----|-----3--|---------------7--8-----|-----3-----|
|--5----5--5s8--------1--|--3-----|--5----5--5s8--------1--|--3----3---|
Guitar 2
|------------------------|--------|------------------------|-------------------|
|------------------------|--------|------------------------|-------------------|
|------------------------|--14fb--|--hold-bend-------------|-14-16--14-16-14-16|
|------------------------|--------|------------------------|-------------------|
|------------------------|--------|------------------------|-------------------|
|------------------------|--------|------------------------|-------------------|


3:15
                                                        (1st time only)
|--------------------|----------------------|----------|-------------|
|--------------------|----------------------|----------|-----4--4----|
|--------------------|----------------------|----------|-----2--2fb--|
|--------------------|----------------------|----------|-------------| x2
|--------------------|--5--7--7--5--7--7----|--5--4----|-------------|
|--0--3--0--4h5---7--|-------------------7--|--------5-|-------------|

3:32
       2x                                          1-----------| 2---------|
|------------------------------------------------|-------------|-----------|
|------------------------------------------------|-------------|-----------|
|--7--7s9--9--9---7--7--7s9--9--9--7s9--9--9-----|--2h4--2--2--|--2h4--2---|
|--7--7s9--9--9---7--7--7s9--9--9--7s9--9--9-----|--2-------2--|--2----2---|
|--5--5s7--7--7---5--5--5s7--7--7--5s9--7--7--0--|----------0--|-------0---|
|------------------------------------------------|-------------|-----------|


3:48

Guitar 1

|---------------------------------|
|---------------------------------|
|--------^-----------^---------^--|
|--7--5--3-----3--5--7---7-----3--|
|--7--5--3-----3--5--7---7-----3--|
|--5--3--1-----1--3--5---5--x--1--|
                                                             only first
Guitar 2                                                       time  ||
                                                                     /
|---------------|-----------------|----------------|------------|-------|
|----17---------|--15----------13-|----------10----|------------|-------|
|-14-----14--14-|------14--14-----|--12--12-----10-10 9 10 9-9~-|--7--9-|
|---------------|-----------------|----------------|------------|-------|x2
|---------------|-----------------|----------------|------------|-------|
|---------------|-----------------|----------------|------------|-------|

4:02 (guitar 2 basically same except for small bit in the end)

Guitar 1
|------------------------|--------|------------------------|-----------|
|------------------------|--------|------------------------|-----------|
|------------------------|--------|------------------------|-----------|
|------------------------|--------|------------------------|-----------|
|---------------7--8-----|-----3--|---------------7--8-----|-----3--2--|
|--5----5--5s8--------1--|--3-----|--5----5--5s8--------1--|--3--------|
Guitar 2
|------------------------|--------|------------------------|-------------------|
|------------------------|--------|------------------------|-------------------|
|------------------------|--------|------------------------|-14-16--14-16-14-16|
|------------------------|--------|------------------------|-------------------|
|------------------------|--------|------------------------|-------------------|
|------------------------|--------|------------------------|-------------------|

Guitar 1
|------------------------|--------|------------------------|-----------|
|------------------------|--------|------------------------|-----------|
|------------------------|--------|------------------------|-----------|
|------------------------|--------|------------------------|-----------|
|---------------7--8-----|-----3--|---------------7--8-----|-----3--2--|
|--5----5--5s8--------1--|--3-----|--5----5--5s8--------1--|--3--------|
Guitar 2
|-----------------|--------|------------------------------|-------------------|
|-----------------|--------|------------------------------|-------------------|
|-----------------|--14fb--|--hold-bend-------------------|-14-16--14-16-14-16|
|-----------------|--------|------------------------------|-------------------|
|-----------------|--------|------------------------------|-------------------|
|-----------------|--------|------------------------------|-------------------|

Guitar 1
|------------------------|--------|------------------------|-----------|
|------------------------|--------|------------------------|-----------|
|------------------------|--------|------------------------|-----------|
|------------------------|--------|------------------------|-----------|
|---------------7--8-----|-----3--|---------------7--8-----|-----3--2--|
|--5----5--5s8--------1--|--3-----|--5----5--5s8--------1--|--3--------|
Guitar 2
|-----------------|--------|------------------------------|-------------------|
|-----------------|--------|------------------------------|-------------------|
|-----------------|--14fb--|--hold-bend-------------------|-14-16--14-16-14-16|
|-----------------|--------|------------------------------|-------------------|
|-----------------|--------|------------------------------|-------------------|
|-----------------|--------|------------------------------|-------------------|

Guitar 1
|------------------------|--------|------------------------|-----------|
|------------------------|--------|------------------------|-----------|
|------------------------|--------|------------------------|-----------|
|------------------------|--------|------------------------|-----------|
|---------------7--8-----|-----3--|---------------7--8-----|-----3--2--|
|--5----5--5s8--------1--|--3-----|--5----5--5s8--------1--|--3--------|
Guitar 2
|-----------------|--------|------------------------------|------------|
|-----------------|--------|------------------------------|------------|
|-----------------|--14fb--|-------unknown riff-----------|------------|
|-----------------|--------|------------------------------|------------|
|-----------------|--------|------------------------------|------------|
|-----------------|--------|------------------------------|------------|

Guitar 1
|----------------------|
|----------------------|
|----------------------|
|----------------------|
|---------------7--7b--|
|--5----5--5s8---------|

| s  slide up
|   slide down
| h  hammer-on
| p  pull-off
| ~  vibrato
| +  harmonic
| x  Mute note
| ^  Hold note
===============================================================================
comments
print report bad tab
5 comments total. Showing first comments.
+1 reply
seekdestroy83 wrote on February 9 2006, 08:14 pm

thank you so much for making this tab!!! I've been trying to find one for a while!

+1 reply
seekdestroy83 wrote on February 9 2006, 08:24 pm

it's not perfect (i.e. the middle), but other than that, good job.

+2 reply
im_atheist wrote on March 29 2006, 07:48 am

should be in flats (half step down), acoustic EbAbDbGbBbEb and lead DbAbDbGbBbEb, used in every Jerry Cantrell/Alice in Chains song

I want to post or [tab]
guest
You may want to rate the tab now too:
select rating
Please do not post tabs as comments. Select "correction" instead!