Oops, an error
Loading. Please wait.

Anger Rising Tab

ver4
ver4

Whole song

Interactive

More versions @911Tabs.com
495 views 15 this week
no commentswrite comment
1 2 3 4 5
please rate
Autoscroll
+/-
esc
set tempo
stop
Contributor
Difficulty
Tuning
intermediate
D# G# C# F# A# D#
WARNING: You are trying to view
                                    content from Ultimate-Guitar.com
                                    in an unauthorized application,
                                    which is prohibited.

                                    Please use an official Ultimate
                                    Guitar Tabs application for iPhone,
                                    iPad or Android to access legitimate
                                    chords, guitar, bass, and drum tabs
                                    from Ultimate-Guitar.com database.

                                    Type "ultimate guitar tabs" in Apple
                                    App Store's or Android Market's
                                    search to find the application.
Anger Rising

Jerry Cantrell

Tuning: half step down

Tabbed by:Brownbear93

Acoustic Intro: x2
|--------0--0---0--------0--0---0--------1--1-1-0--3-----3--3----------|
|--------0--0---0--0---0-0--0-0-0--------1--1-1-0--3-----3--3---0------|
|--4---4-4--4-4-0--2---2-2--2-2-0--------2--2-2-0--0---0-0--0-0-0------|
|--4---4-4----4----2---2-2----2----3---3-3----3----2---2-2----2-0---5--|
|--2---2-2----2----0---0-0----0----3---3-3----3----3---3-3----3-----5--|
|----------------------------------1---1-1----1---------------------3--|

|----3--3-3----------2--2--------------------------------------------|
|----3--3-3----------2--2-------0------------------------------------|
|----4--4-4----------3--3---0---0-----0-0-0-0-0-0-0-0-0-0-0-0-0-0----|
|--5-5--5---0--4---4-4----4-0---2-----2-2-2-2-2-2-2-2-2-2-2-2-2-2----|
|--5-5--5---0--4---4-4----4-0---2-----2-2-2-2-2-2-2-2-2-2-2-2-2-2----|
|--3-3--3---0--2---2-2----2-----0-----0-0-0-0-0-0-0-0-0-0-0-0-0-0----|

G1
|-----------------------------------------------------------------|
|-----------------------------------------------------------------|
|---------------------4-----2-----------5-------------------------|
|-2-2-2-2-2-2-2-2-2---4-----2-----3-----5-----5-----4-----2-------|
|-2-2-2-2-2-2-2-2-2---2-----0-----3-----3-----5-----4-----2-------|
|-0-0-0-0-0-0-0-0-0---------------1-----------3-----2-----0-------|
PM.................


Verse:
G1
|---------------------------------------------------------------------|
|--------3----------------------3----------3---------------------3----|
|--------2----------------------2----------2---------------------2----|x6
|--2-4-4-0--------------------2-0-2--2-4-4-0-------------------2-0-2--|
|--0-2-2---4-4-4-3-3-3-3-2-2--0---0--0-2-2---4-4-4-3-3-3-3-2-2-0---0--|
|----------2-2-2-1-1-1-1-0-0-----------------2-2-2-1-1-1-1-0-0--------|
PM         .................                 .................

G2
|------------------------------------------------------------------|
|------------------------------------------------------------------|
|------------------------------------------------------------------|x2
|----------7----------------------7--------7---------------------7-|
|----7-9-9---------------------/7----7-9-9--------------------/7---|
|------------9-9-9-8-8-8-8-7-7--------------9-9-9-8-8-8-8-7-7------|
PM           .................            .................


Chorus:
|------------------------------------------------|
|---------3---------------------3----------------|
|---------2---------------------2----------------|x2
|---2-4-4-0-------2--4-4--2-4-4-0-------2--4-4---|
|---0-2-2---2-3-4-0--2-2--0-2-2---2-3-4-0--2-2---|
|-----------0-1-2-----------------0-1-2----------|


2nd Verse:
G1
|---------------------------------------------------------------------|
|--------3----------------------3----------3---------------------3----|
|--------2----------------------2----------2---------------------2----|x6
|--2-4-4-0--------------------2-0-2--2-4-4-0-------------------2-0-2--|
|--0-2-2---4-4-4-3-3-3-3-2-2--0---0--0-2-2---4-4-4-3-3-3-3-2-2-0---0--|
|----------2-2-2-1-1-1-1-0-0-----------------2-2-2-1-1-1-1-0-0--------|
PM         .................                 .................

G2
|------------------------------------------------------------------|
|------------------------------------------------------------------|
|------------------------------------------------------------------|x2
|----------7----------------------7--------7---------------------7-|
|----7-9-9---------------------/7----7-9-9--------------------/7---|
|------------9-9-9-8-8-8-8-7-7--------------9-9-9-8-8-8-8-7-7------|
PM           .................            .................



2nd Chorus:
|------------------------------------------------|
|---------3---------------------3----------------|
|---------2---------------------2----------------|x4
|---2-4-4-0-------2--4-4--2-4-4-0-------2--4-4---|
|---0-2-2---2-3-4-0--2-2--0-2-2---2-3-4-0--2-2---|
|-----------0-1-2-----------------0-1-2----------|

G2
|-----------------------------------------------------------------|
|-----------------------------------------------------------------|x2
|---9/11-11/14----------9--11-11--9/11-11/14----------9--11--11---|
|---x--x--x--x--9-10-11-x---x--x--x--x--x--x--9-10-11-x---x---x---|
|---7/-9--9/12--x--x--x-7---9--9--7/-9--9/12--x--x--x-7---9---9---|
|---------------7--8--9-----------------------7--8--9-------------|


Post Chorus:
G1
|--------------------------------------------------------------|
|--------------------------------------------------------------|
|----4-----2----------5----------------------------------------|
|----4-----2----3-----5-----5-----4-----2---2-2-2-2-2-2-2-2----|
|----2-----0----3-----3-----5-----4-----2---2-2-2-2-2-2-2-2----|
|---------------1-----------3-----2-----0---0-0-0-0-0-0-0-0----|
PM                                          ...............

Solo:
|---------------------------0----------------------------------------------|
|-------------------------3---3----------------------------------------7~--|
|------------4~---------2-------2-4-4-------------9----/14-16------x-9-7~--|
|------------4~-------4-------------4---------/11---11--------11-9---------|
|--2/---\------------------------------------------------------------------|
|--------------------------------------------------------------------------|

|--------0-----------------------------------------------------------------|
|------3---3---------------------------------------------------------------|
|----2-------2-4----------9------/14-16b-----x-x-19-19-x-x-19-19-x-x-19-19-|
|--4------------------/11---11---------------x-x-19-19-x-x-19-19-x-x-19-19-|
|--------------------------------------------------------------------------|
|--------------------------------------------------------------------------|

|---------------------------------------------------------------------------|
|---------------------------------------------------------------------------|
|-x-x-21b-21-19-----x-x-19-19-x-x-19-19-x-x-19-19-x-x-21b-21-19------x--x-x-|
|-x-x-----------21~-x-x-19-19-x-x-19-19-x-x-19-19-x-x-----------21~--x--x-x-|
|---------------------------------------------------------------------------|
|---------------------------------------------------------------------------|

|---------------------------------------------------------------------------|
|---------------------------------------------------------------------------|
|-19-x-x-19-19-x-x-19-19-x-x-21b-21-19-----x-x-x-19-19-x-x-19-19-x-x-19-19--|
|-19-x-x-19-19-x-x-19-19-x-x-----------21~-x-x-x-19-19-x-x-19-19-x-x-19-19--|
|---------------------------------------------------------------------------|
|---------------------------------------------------------------------------|

|---------------------------------------------|
|---------------------------------------------|
|-x-x-21b-21-19-21-21b------------------r-----|
|-x-x-----------------------------------------|
|---------------------------------------------|
|---------------------------------------------|


3rd Verse:
G1
|---------------------------------------------------------------------|
|--------3----------------------3----------3---------------------3----|
|--------2----------------------2----------2---------------------2----|x2
|--2-4-4-0--------------------2-0-2--2-4-4-0-------------------2-0-2--|
|--0-2-2---4-4-4-3-3-3-3-2-2--0---0--0-2-2---4-4-4-3-3-3-3-2-2-0---0--|
|----------2-2-2-1-1-1-1-0-0-----------------2-2-2-1-1-1-1-0-0--------|
PM         .................                 .................

Fill:
|----------------------|
|----------------------|
|-----2-----2-2--------|
|--/4----/4-----0------|
|----------------------|
|----------------------|


3rd Chorus:
|------------------------------------------------|
|---------3---------------------3----------------|
|---------2---------------------2----------------|x4
|---2-4-4-0-------2--4-4--2-4-4-0-------2--4-4---|
|---0-2-2---2-3-4-0--2-2--0-2-2---2-3-4-0--2-2---|
|-----------0-1-2-----------------0-1-2----------|

G2
|-----------------------------------------------------------------|
|-----------------------------------------------------------------|x2
|---9/11-11/14----------9--11-11--9/11-11/14----------9--11--11---|
|---x--x--x--x--9-10-11-x---x--x--x--x--x--x--9-10-11-x---x---x---|
|---7/-9--9/12--x--x--x-7---9--9--7/-9--9/12--x--x--x-7---9---9---|
|---------------7--8--9-----------------------7--8--9-------------|


2nd Post Chorus:

G1
|---------------------------------------------|
|---------------------------------------------|
|----4-----2----------5-----------------------|x4
|----4-----2----3-----5-----5-----4-----2-----|
|----2-----0----3-----3-----5-----4-----2-----|
|---------------1-----------3-----2-----0-----|
                                         
G2
|------------------------------------------------------------------------------|
|-----------------------------10~----------------------------------------------|
|-----/14~---------------------------12br--12-10-9-10-9--------------9b---7~---|
|------------------------/11----------------------------10~----10-12-----------|
|------------------------------------------------------------------------------|
|------------------------------------------------------------------------------|

|--------------------------------------------------------------------4-----|
|-----------------------------------------------------2/4~-4~--4-5-5---5~--|
|-----------------------------/14-14--14-14-13~-\--------------------------|
|-10-9--9-8~--8-6br--4~----------------------------------------------------|
|--------------------------------------------------------------------------|
|--------------------------------------------------------------------------|

|----------5------------7----12b-10~----10---10--------9---9-------------------|
|--5-5/6-6---6--6/8-8-8---8----------------8----8-7~--7--7---7----5br-3-5-5br--|
|------------------------------------------------------------------------------|
|------------------------------------------------------------------------------|
|------------------------------------------------------------------------------|
|------------------------------------------------------------------------------|

|----------------------------------4-------------5------------7----12b-10~---|
|--3-5-5br-3-5-5b----2/4~-4~-4-5-5---5~--5-5/6-6---6--6/8-8-8---8------------|
|----------------------------------------------------------------------------|
|----------------------------------------------------------------------------|
|----------------------------------------------------------------------------|
|----------------------------------------------------------------------------|

|---10---10--------9---9----------------------------------------------------|
|------8----8-7~-7---7---7-----5br-3-5-5br-3-5-5br-3-5-5b-------------------|
|---------------------------------------------------------------------------|
|---------------------------------------------------------------------------|
|---------------------------------------------------------------------------|
|---------------------------------------------------------------------------|

************************************

| /   slide up
| \   slide down
| h   hammer-on
| p   pull-off
| ~   vibrato
| +   harmonic
| x   Mute note
| b   Bend
| pb  Pre-bend
| br  Bend release
| pbr Pre-bend release
| brb Bend release bend

************************************
comments
We did not receive enough feedback on this tab! Please rate:
print report bad tab
1 2 3 4 5
I want to post or [tab]
guest
You may want to rate the tab now too:
select rating
Please do not post tabs as comments. Select "correction" instead!