Oops, an error
Loading. Please wait.

Alien Walker Tab

ver1
ver1

Intro

Whole song

More versions @911Tabs.com
11,921 views 9 this week
3 commentsread comments
1 2 3 4 5
excellent!
x 3
add to favorites launch autoscroll
font size
0
reset
Autoscroll
+/-
esc
set tempo
stop
Contributor
Difficulty
intermediate
WARNING: You are trying to view
                                    content from Ultimate-Guitar.com
                                    in an unauthorized application,
                                    which is prohibited.

                                    Please use an official Ultimate
                                    Guitar Tabs application for iPhone,
                                    iPad or Android to access legitimate
                                    chords, guitar, bass, and drum tabs
                                    from Ultimate-Guitar.com database.

                                    Type "ultimate guitar tabs" in Apple
                                    App Store's or Android Market's
                                    search to find the application.
-------------------------------------------------------------------------------
                             Alien Walker - JerryC
-------------------------------------------------------------------------------
Tabbed by: DaveWGuitar

Tuning: Standard

              adlib!!!   
e|----------------------------------------T24-T24-T24-T24-T24-T24------------|
B|---------------------------------------------------------------------------|
G|---------------------------------------------------------------------------|
D|----9-------------T24------------T24---------------------------------------|
A|----7---------T22-----------T22--------------------------------------------|
E|---------------------------------------------------------------------------|

e|--------------------------------|------------------------------------------|
B|--------------------------------|------------------------------------------|
G|---------7-7--6-6--5-5--4/5\4---|--------7-7--6-6--5-----5/6/7-------------|
D|---\2-2--7-7--6-6--5-5--4/5\4---|---2-2--7-7--6-6--5-----5/6/7-------------|
A|---\2-2--5-5--4-4--3-3--2/3\2---|---2-2--5-5--4-4--3--0--3/4/5-------------|
E|----0-0-------------------------|---0-0------------------------------------|

e|--------------------------------|----------------------------------12------|
B|--------------------------------|---------------------------10-/12---------|
G|---------7-7--6-6--5-5--4/5\4---|--------7-7--6-6---/9p-7------------------|
D|----2-2--7-7--6-6--5-5--4/5\4---|---2-2--7-7--6-6---------9----------------|
A|----2-2--5-5--4-4--3-3--2/3\2---|---2-2--5-5--4-4--------------------------|
E|----0-0-------------------------|---0-0------------------------------------|

e|--------------------------------|------------------------------------------|
B|--------------------------------|------------------------------------------|
G|---------7-7--6-6--5-5--4/5\4---|--------7-7--6-6--5-----5/6/7-------------|
D|----2-2--7-7--6-6--5-5--4/5\4---|---2-2--7-7--6-6--5-----5/6/7-------------|
A|----2-2--5-5--4-4--3-3--2/3\2---|---2-2--5-5--4-4--3--0--3/4/5-------------|
E|----0-0-------------------------|---0-0------------------------------------|

e|--------------------------------|------------------------------------------|
B|--------------------------------|------------------------------------------|
G|---------7-7--6-6--5-5--4/5\4---|------------------------------------------|
D|----2-2--7-7--6-6--5-5--4/5\4---|---2-2x-2x-2x-----------------------------|
A|----2-2--5-5--4-4--3-3--2/3\2---|---2-2x-2x-2x-----------------------------|
E|----0-0-------------------------|---0-0x-0x-0x---0x (scrape)---------------|

e|---------------------------------------------------------------------------|
B|----------15-14--15-14-12--------------------------------------------------|
G|-------12-----------------15-14-12----14b-14bp-12-------12~----------------|
D|----14--------------------------------------------14-----------------------|
A|---------------------------------------------------------------------------|
E|---------------------------------------------------------------------------|

e|---------------------17----------------------------------------------------|
B|----------15-/17-14-----14-15-12-----10b-b10-8----10b+-10b-8---------------|
G|-------12--------------------------------------9-------------9-/12-\9+-----|
D|----14---------------------------------------------------------------------|
A|---------------------------------------------------------------------------|
E|---------------------------------------------------------------------------|

e|---------------------------------------------------------------------------|
B|----------15-14--/17-\14--12-----------------------------------------------|
G|-------12--------------------14-12-b14-b14p-12----------------12~----------|
D|----14-----------------------------------------14-----12x-14x--------------|
A|--------------------------------------------------14x----------------------|
E|---------------------------------------------------------------------------|

e|-------------------------------------------------19----18--17--------------|
B|--------------------14b-b14p-12--14b-b14-12--------------------------------|
G|----0-7-8-9--7-8-9---------------14b-b14-12---/16----15--14----------------|
D|---------------------------------------------------------------------------|
A|---------------------------------------------------------------------------|
E|---------------------------------------------------------------------------|

e|-----15b-b15-12-------------------/17~----14h-15p-14-\12--12h-14p-12-\10---|
B|----------------15-12------------------------------------------------------|
G|----------------------14b-b14-12-------------------------------------------|
D|---------------------------------------------------------------------------|
A|---------------------------------------------------------------------------|
E|---------------------------------------------------------------------------|

e|----10-/12-\10--5h-7-5--3--------------------------------------------------|
B|----10-/12-\10--5h-7-5--3-----------------------8-10/12----------8-8-10-8--|
G|------------------------------------------7x-9x-----------9xp-7x-----------|
D|------------------------------------7x-9x----------------------------------|
A|---------------------------------------------------------------------------|
E|---------------------------------------------------------------------------|

e|----------------------------------14b-b14--------14b-b14p-12---------------|
B|----10/12-10/12---14--16--12---12---------12-----------------15b~--b15p-12-|
G|---------------------------------------------------------------------------|
D|---------------------------------------------------------------------------|
A|---------------------------------------------------------------------------|
E|---------------------------------------------------------------------------|

e|---------------------------------------------------------------------------|
B|------12-12-12-15----------------------------13-12-------------------------|
G|--14b-------------12--11h-12p-11-\9-/11h-12--------14\10-7h-9p-7-----------|
D|-----------------------------------------------------------------7h-9p-7h--|
A|---------------------------------------------------------------------------|
E|---------------------------------------------------------------------------|

e|---------12-14b-b14-12-----------------------------------------------------|
B|------15---------------15~--------------8-10/12--------8-8-10-8-10/12-10/12|
G|--/14-----------------------------7x-9x---------9xp-7x---------------------|
D|----------------------------7x-9x------------------------------------------|
A|---------------------------------------------------------------------------|
E|---------------------------------------------------------------------------|

e|----------------14b-14b-14b~--/19-18-17------------------------------------|
B|---14-16-12--12----------------------------20b~-17-20b~--------------------|
G|---------------------------------------------------------------------------|
D|---------------------------------------------------------------------------|
A|---------------------------------------------------------------------------|
E|---------------------------------------------------------------------------|

e|--T17p-12h-15p-12----------------------------------------------------------|
B|------------------T17p-12h-15p-12------------------------------------------|
G|----------------------------------T17p-12h-14p-12--------------------------|
D|--------------------------------------------------T17p-12h-14p-12----------|
A|---------------------------------------------------------------------------|
E|---------------------------------------------------------------------------|

e|---------------------------------------------------------------------------|
B|---------------------------------------------------------------------------|
G|--T17p-12h-14p-12----------------------------------------------------------|
D|-------------------T17p-12h-14p-12------------------------------12-T17p-14-|
A|------------------------------------T17p-12h-14p-12-\10-/12h-14------------|
E|---------------------------------------------------------------------------|

e|---------------------------------------------------------------------------|
B|--12/13-12-------------------------15----15----15-/17-\15------------------|
G|-----------14\12-------------12/14----14----14------------14-14/16-\12-----|
D|-----------------7h-9p-7---------------------------------------------------|
A|---------------------------------------------------------------------------|
E|---------------------------------------------------------------------------|

e|--------------------------------|------------------------------------------|
B|--------------------------------|------------------------------------------|
G|---------7-7--6-6--5-5--4/5\4---|--------7-7--6-6--5-----5/6/7-------------|
D|---\2-2--7-7--6-6--5-5--4/5\4---|---2-2--7-7--6-6--5-----5/6/7-------------|
A|---\2-2--5-5--4-4--3-3--2/3\2---|---2-2--5-5--4-4--3--0--3/4/5-------------|
E|----0-0-------------------------|---0-0------------------------------------|

e|--------------------------------|------------------------------------------|
B|--------------------------------|------------------------------------------|
G|---------7-7--6-6--5-5--4/5\4---|------------------------------------------|
D|---\2-2--7-7--6-6--5-5--4/5\4---|--2-----------9------------9------------9-|
A|---\2-2--5-5--4-4--3-3--2/3\2---|--2-----------7------------7------------7-|
E|----0-0-------------------------|--0--0x-0x-0x-----0x-0x-0x-----0x-0x-0x---|

e|---------------------------------------------------------------------------|
B|----------15-14--15-14-12--------------------------------------------------|
G|-------12-----------------15-14-12----14-14bp-12--------+12~---------------|
D|----14-------------------------------------------14------------------------|
A|---------------------------------------------------------------------------|
E|---------------------------------------------------------------------------|

e|---------------------17----------------------------------------------------|
B|----------15-/17-14-----14-15-\12----10b-b10-8----10b+-b10-8---------------|
G|-------12--------------------------------------9------------9-/12-9+-------|
D|----14---------------------------------------------------------------------|
A|---------------------------------------------------------------------------|
E|---------------------------------------------------------------------------|

e|---------------------------------------------------------------------------|
B|----------15-14--/17-\14-/15-\12-------------------------------------------|
G|-------12------------------------14-12-14b-b14p-12----------------12~------|
D|----14---------------------------------------------14-----12x-14x----------|
A|------------------------------------------------------14x------------------|
E|---------------------------------------------------------------------------|

e|----------------------------T12p-10p-8-------------------------T17p-15p-12-|
B|-----------------T12p-10p-8------------------------T17p-15p-12-------------|
G|7-8-9--T12p-9p-7-----------------------T17p-14p-12-------------------------|
D|---------------------------------------------------------------------------|
A|---------------------------------------------------------------------------|
E|---------------------------------------------------------------------------|

e|-T19p-15p-12--T19p-15p-12--T19p-15p-12---T17p-15p-12--T17p-15p-12----------|
B|---------------------------------------------------------------------------|
G|---------------------------------------------------------------------------|
D|---------------------------------------------------------------------------|
A|---------------------------------------------------------------------------|
E|---------------------------------------------------------------------------|

e|-T17p-15p-12--T15p-12p-10--T15p-12p-10--T15p-12p-10---T14p-12p-10----------|
B|---------------------------------------------------------------------------|
G|---------------------------------------------------------------------------|
D|---------------------------------------------------------------------------|
A|---------------------------------------------------------------------------|
E|---------------------------------------------------------------------------|

e|--T14p-12p-10--T14p-12p-10----14b~~----------------------------------------|
B|---------------------------------------------------------------------------|
G|---------------------------------------------------------------------------|
D|---------------------------------------------------------------------------|
A|---------------------------------------------------------------------------|
E|---------------------------------------------------------------------------|

e|---------------------------------------------------------------------------|
B|---------------8-10/12----------8-8-10-8---10/12-10/12---14--16--12--------|
G|---------7x-9x-----------9x-7xp--------------------------------------------|
D|---7x-9x-------------------------------------------------------------------|
A|---------------------------------------------------------------------------|
E|---------------------------------------------------------------------------|

e|-----14b-b14------14b-b14p-12----------------------------------------------|
B|--12---------12---------------15b~--b15p-12-------12-12-12-15--------------|
G|----------------------------------------------14b-------------12-----------|
D|---------------------------------------------------------------------------|
A|---------------------------------------------------------------------------|
E|---------------------------------------------------------------------------|

e|---------------------------------------------------------------------------|
B|-------------------------------------------------------15-17-15~-----------|
G|--11h-12p-11\9-\7-7\5-4h-5p-4----------------0-2-4--16---------------------|
D|------------------------------5--0x-0x-7+~---------------------------------|
A|---------------------------------------------------------------------------|
E|---------------------------------------------------------------------------|

e|--19-19-19~-14h-15p-14-\12-10-\8h-10p-8-7-8-7------------------------------|
B|----------------------------------------------10p-8p-7---------------------|
G|-------------------------------------------------------8~------------------|
D|---------------------------------------------------------------------------|
A|---------------------------------------------------------------------------|
E|---------------------------------------------------------------------------|

e|---------------------------------------------------------------------------|
B|--12b-b12-10-12b~-12p-10-12bb+~---12-11-10---------------------------------|
G|-------------------------------------------12-0-12+------------------------|
D|---------------------------------------------------------------------------|
A|---------------------------------------------------------------------------|
E|---------------------------------------------------------------------------|

e|---------------------------------------------------------------------------|
B|---------------------------------------------------------------------------|
G|-------7h-9p-7-------------------------------------------------------------|
D|--7h-9---------9-8-7-5--8x-7x-5x-------------------------------------------|
A|----------------------------------7-5-8-5h-7-------------------------------|
E|---------------------------------------------8-----------------------------|

e|-------------------------------------12-\10--T15p-12p-8--------------------|
B|----------------------------12-13-15--------------------T15p-10p-8---------|
G|----------------------12-14------------------------------------------------|
D|----------------12-14------------------------------------------------------|
A|-------9-12-/14------------------------------------------------------------|
E|--9-12---------------------------------------------------------------------|

e|--T15p-12p-8-------------T15p-12p-8-------------T15p-12p-8-----------------|
B|-------------T15p-10p-8-------------T15p-10p-8-------------T15p-10p-8------|
G|---------------------------------------------------------------------------|
D|---------------------------------------------------------------------------|
A|---------------------------------------------------------------------------|
E|---------------------------------------------------------------------------|

e|--T15p-12p-8-------------T15p-12p-8-------------T15p-12p-8-----------------|
B|-------------T15p-10p-8-------------T15p-10p-8-------------T15p-10p-8------|
G|---------------------------------------------------------------------------|
D|---------------------------------------------------------------------------|
A|---------------------------------------------------------------------------|
E|---------------------------------------------------------------------------|

e|--T15p-12p-8-------------T15p-12p-10---------------T15p-12p-10-------------|
B|-------------T15p-10p-8---------------T15p-12p-10---------------T15p-12p-10|
G|---------------------------------------------------------------------------|
D|---------------------------------------------------------------------------|
A|---------------------------------------------------------------------------|
E|---------------------------------------------------------------------------|

e|--T15p-12p-10---------------T15p-12p-10---------------10---T16-T16-T16-T16-|
B|---------------T15p-12p-10---------------T15p-12p-10-----------------------|
G|---------------------------------------------------------------------------|
D|---------------------------------------------------------------------------|
A|---------------------------------------------------------------------------|
E|---------------------------------------------------------------------------|

e|--T17-T17-T17-T17--T19-T19-T19-T19--19b-b19p-17------------------17--------|
B|------------------------------------------------20b--b20-17---------17\15--|
G|---------------------------------------------------------------------------|
D|---------------------------------------------------------------------------|
A|---------------------------------------------------------------------------|
E|---------------------------------------------------------------------------|

e|--15-------12-------10------8----------------------------------------------|
B|-----15\12----12\10----10\8---8/10-----------------------------------5-----|
G|------------------------------------7b-b7p-5-7+-/9-\7-5--------------5-----|
D|--------------------------------------------------------7p-5---------5-----|
A|-------------------------------------------------------------7p-5-\3-3-----|
E|---------------------------------------------------------------------------|

e|------------------------------------19-17---20-19-20--20b-20-19------------|
B|---------------------------------------------------------------------------|
G|----------------------------16~-14~----------------------------------------|
D|---------------------------------------------------------------------------|
A|--5/19~-14~-15~-17~-15~-14~------------------------------------------------|
E|---------------------------------------------------------------------------|

e|--20-19-20--20b-20-19-20~--------5-----------5-----------5-----------------|
B|-------------------------------5---8p-5----5---8p-5----5---8p-5------------|
G|----------------------------7b----------7b----------7b----------7b-b7p-5---|
D|---------------------------------------------------------------------------|
A|---------------------------------------------------------------------------|
E|---------------------------------------------------------------------------|

e|---------------------------------------------------------------------------|
B|------------------------------------13-15-13~-----12h-13p-12\10-8---7-8----|
G|----5-7+~-------5h-7p-5-------12-14----------------------------------------|
D|--7--------5h-7---------7-/14----------------------------------------------|
A|---------------------------------------------------------------------------|
E|---------------------------------------------------------------------------|

e|---------------------------------------------------------------------------|
B|---------------------------------------------------------------------------|
G|---5h-7p-5-----7+~~~-------------------------------------------------------|
D|-----------7---------------------------------------------------------------|
A|---------------------------------------------------------------------------|
E|---------------------------------------------------------------------------|

e|-------------------------------|-------------------------------------------|
B|-------------------------------|-------------------------------------------|
G|--------7-7--6-6--5-5--4/5\4---|--------7-7--6-6--5-----5/6/7--------------|
D|---2-2--7-7--6-6--5-5--4/5\4---|---2-2--7-7--6-6--5-----5/6/7--------------|
A|---2-2--5-5--4-4--3-3--2/3\2---|---2-2--5-5--4-4--3--0--3/4/5--------------|
E|---0-0-------------------------|---0-0-------------------------------------|

e|-------------------------------|-------------------------------------------|
B|-------------------------------|-------------------------------------------|
G|--------7-7--6-6--5-5--4/5\4---|-------------------------------------------|
D|---2-2--7-7--6-6--5-5--4/5\4---|-------------------------------------------|
A|---2-2--5-5--4-4--3-3--2/3\2---|---7x-6x-5x----------7x-6x-5x--------------|
E|---0-0-------------------------|------------7x-6x-5x----------7x-6x-5x-----|

e|-------------------------------|-------------------------------------------|
B|-------------------------------|-------------------------------------------|
G|--------7-7--6-6--5-5--4/5\4---|--------7-7--6-6--5-----5/6/7--------------|
D|---2-2--7-7--6-6--5-5--4/5\4---|---2-2--7-7--6-6--5-----5/6/7--------------|
A|---2-2--5-5--4-4--3-3--2/3\2---|---2-2--5-5--4-4--3--0--3/4/5--------------|
E|---0-0-------------------------|---0-0-------------------------------------|

e|-------------------------------|---------------------------------------12~-|
B|-------------------------------|------------------------------------12-----|
G|--------7-7--6-6--5-5--4/5\4---|------------------------------12-14--------|
D|---2-2--7-7--6-6--5-5--4/5\4---|------------------------12-14--------------|
A|---2-2--5-5--4-4--3-3--2/3\2---|-----------7-9--0-12-14--------------------|
E|---0-0-------------------------|--0--0-7-9---------------------------------|

    sweep
e|--12-15p-12----------------12-15p-12---------------------------------------|
B|-----------12----------12----------12----------12--------------------------|
G|--------------12----12----------------12----12-----------------------------|
D|-----------------14----------------------14--------------------------------|
A|---------------------------------------------------------------------------|
E|---------------------------------------------------------------------------|

e|--12-15p-12----------------12-15p-12---------------------------------------|
B|-----------12----------12----------12----------12--------------------------|
G|--------------12----12----------------12----12-----------------------------|
D|-----------------14----------------------14--------------------------------|
A|---------------------------------------------------------------------------|
E|---------------------------------------------------------------------------|

e|--12-15p-12----------------12-15p-12---------------------------------------|
B|-----------12----------12----------12----------12--------------------------|
G|--------------12----12----------------12----12-----------------------------|
D|-----------------14----------------------14--------------------------------|
A|---------------------------------------------------------------------------|
E|---------------------------------------------------------------------------|

e|--12-15p-12----------------12-15p-12---------------------------------------|
B|-----------12----------12----------12----------12--------------------------|
G|--------------12----12----------------12----12-----------------------------|
D|-----------------14----------------------14--------------------------------|
A|---------------------------------------------------------------------------|
E|---------------------------------------------------------------------------|

e|--12-15p-12----------------------12-15p-12---------------------------------|
B|-----------12------------------------------12------------------------------|
G|--------------12------------------------------12---------------------------|
D|-----------------14------------------------------14------------------------|
A|--------------------14--------14--------------------14--------14-----------|
E|-----------------------15p-12--------------------------15p-12--------------|

e|--12-15p-12----------------------12-15p-12---------------------------------|
B|-----------12------------------------------12------------------------------|
G|--------------12------------------------------12---------------------------|
D|-----------------14------------------------------14------------------------|
A|--------------------14--------14--------------------14--------14-----------|
E|-----------------------15p-12--------------------------15p-12--------------|

e|--12-15p-12----------------------12-15p-12---------------------------------|
B|-----------12------------------------------12------------------------------|
G|--------------12------------------------------12---------------------------|
D|-----------------14------------------------------14------------------------|
A|--------------------14--------14--------------------14--------14-----------|
E|-----------------------15p-12--------------------------15p-12--------------|


e|---------------------------------------------------------------------------|
B|---------------------------------------------------------------------------|
G|--14-14b-b14-12-14~~-------------------------------------------------------|
D|---------------------------------------------------------------------------|
A|---------------------------------------------------------------------------|
E|---------------------------------------------------------------------------|

e|------------------17-20b~--19-17-18b~--17-15-17b-b17p-15----17b-b17p-15----|
B|--------15-14--20----------------------------------------17-------------17-|
G|-----12--------------------------------------------------------------------|
D|-/14-----------------------------------------------------------------------|
A|---------------------------------------------------------------------------|
E|---------------------------------------------------------------------------|

e|----------------------------------15~--------------------------------------|
B|--12--------------------15--------------------------8-10/12----------------|
G|-----15-14-12-14-12-14b----b14-12-------------7x-9x------------------------|
D|----------------------------------------7x-9x------------------------------|
A|---------------------------------------------------------------------------|
E|---------------------------------------------------------------------------|

e|---------------------------------------------------14b-b14-----------------|
B|---------8-8-10-8-10/12-10/12---14--16--12------12---------12--------------|
G|--9xp-7x-------------------------------------------------------------------|
D|---------------------------------------------------------------------------|
A|---------------------------------------------------------------------------|
E|---------------------------------------------------------------------------|

e|--14b-b14p-12----------------/19-19-19-20-19p-17-\15--14h-15p-14-\12-\10---|
B|--------------15b~--b15p-12------------------------------------------------|
G|---------------------------------------------------------------------------|
D|---------------------------------------------------------------------------|
A|---------------------------------------------------------------------------|
E|---------------------------------------------------------------------------|

e|------12-----12------------------------------------------------12-14b--14b-|
B|--15b----15b----------------13-12h-13p-12-------------------15-------------|
G|----------------14b-b14-12----------------14\12----------14----------------|
D|------------------------------------------------7h-9p-7--------------------|
A|---------------------------------------------------------------------------|
E|---------------------------------------------------------------------------|

e|--b14-12-------------------------------------------------------------------|
B|---------15--------------8-10/12----------8-8-10-8-10/12-10/12--14--16--12-|
G|-------------------7x-9x-----------9xp-7x----------------------------------|
D|-------------7x-9x---------------------------------------------------------|
A|---------------------------------------------------------------------------|
E|---------------------------------------------------------------------------|

e|-----14b-14b-14b~--/19-18-17-----------------------------------------------|
B|--12-------------------------20b~-17-20b~----------------------------------|
G|---------------------------------------------------------------------------|
D|---------------------------------------------------------------------------|
A|---------------------------------------------------------------------------|
E|---------------------------------------------------------------------------|

e|---------------------------------------------------------------------------|
B|--12-----------------12-----------------13-12h-13p-12----------------------|
G|-----15-14-12--14-12----15-14-12--14-12---------------14\12--7h-9p-7-------|
D|---------------------------------------------------------------------------|
A|---------------------------------------------------------------------------|
E|---------------------------------------------------------------------------|

e|---------------------------------------------------------------------------|
B|--------15----15----15-/17-\15---------------------------------------------|
G|--12/14----14----14------------14-14/16-\12--------------------------------|
D|---------------------------------------------------------------------------|
A|---------------------------------------------------------------------------|
E|---------------------------------------------------------------------------|

e|--------------------------------|------------------------------------------|
B|--------------------------------|------------------------------------------|
G|---------7-7--6-6--5-5--4/5\4---|--------7-7--6-6--5-----5/6/7-------------|
D|---\2-2--7-7--6-6--5-5--4/5\4---|---2-2--7-7--6-6--5-----5/6/7-------------|
A|---\2-2--5-5--4-4--3-3--2/3\2---|---2-2--5-5--4-4--3--0--3/4/5-------------|
E|----0-0-------------------------|---0-0------------------------------------|

e|--------------------------------|--------------------5---7-----------------|
B|--------------------------------|--------------------6---8-----------------|
G|---------7-7--6-6--5-5--4/5\4---|--------7-7--6-6----5---7-----------------|
D|----2-2--7-7--6-6--5-5--4/5\4---|---2-2--7-7--6-6---x---x------------------|
A|----2-2--5-5--4-4--3-3--2/3\2---|---2-2--5-5--4-4--------------------------|
E|----0-0-------------------------|---0-0------------------------------------|

e|--------------------------------|------------------------------------------|
B|--------------------------------|------------------------------------------|
G|---------7-7--6-6--5-5--4/5\4---|--------7-7--6-6--------5/6/7-------------|
D|----2-2--7-7--6-6--5-5--4/5\4---|---2-2--7-7--6-6--5-----5/6/7-------------|
A|----2-2--5-5--4-4--3-3--2/3\2---|---2-2--5-5--4-4--3--0--3/4/5-------------|
E|----0-0-------------------------|---0-0------------------------------------|

                                     push
e|--------------------------------|------------------------------------------|
B|--------------------------------|------------------------------------------|
G|---------7-7--6-6--5-5--4/5\4---|------------------------------------------|
D|----2-2--7-7--6-6--5-5--4/5\4---|---2--------------------------------------|
A|----2-2--5-5--4-4--3-3--2/3\2---|---2--------------------------------------|
E|----0-0-------------------------|---0--------------------------------------|


| /   slide up
| \   slide down
| h   hammer-on
| p   pull-off
| ~   vibrato
| +   harmonic
| x   Mute note
| T   tap
| 14b play fret14 and then bend
| b14 prebend 14 and then release bend
| bb  bend 3 frets
===============================================================================
comments
We did not receive enough feedback on this tab! Please rate:
print report bad tab
1 2 3 4 5
3 comments total.
0 reply
bobzkee wrote on June 7 2013, 02:46 am

hi.. i love this music very much! & i practice your tab everyday but i don't have backing track for this music... please send me a backing track for this music.. hoping your kindness & waiting for your reply...
email me: bobzkee91@gmail.com... thank you so much!!!!

0 reply
bobzkee wrote on December 28 2013, 10:54 am

dude, there are some error in this tab...

0 reply
DaveWGuitar wrote on December 28 2013, 12:15 pm

It was done by ear so I'm not surprised there are errors.
Can you post a correction for other people?

I want to post or [tab]
guest
You may want to rate the tab now too:
select rating
Please do not post tabs as comments. Select "correction" instead!