Oops, an error
Loading. Please wait.

Canon Rock Bass Tab

ver3
ver3
More versions @911Tabs.com
15,860 views 21 this week
no commentswrite comment
1 2 3 4 5
excellent!
x 1
add to favorites launch autoscroll
font size
0
reset
Autoscroll
+/-
esc
set tempo
stop
Contributor
WARNING: You are trying to view
                                    content from Ultimate-Guitar.com
                                    in an unauthorized application,
                                    which is prohibited.

                                    Please use an official Ultimate
                                    Guitar Tabs application for iPhone,
                                    iPad or Android to access legitimate
                                    chords, guitar, bass, and drum tabs
                                    from Ultimate-Guitar.com database.

                                    Type "ultimate guitar tabs" in Apple
                                    App Store's or Android Market's
                                    search to find the application.
#----------------------------------PLEASE NOTE---------------------------------#
#This file is the author's own work and represents their interpretation of the #
#song. You may only use this file for private study, scholarship, or research. #
#------------------------------------------------------------------------------#

CANON ROCK (Bassline)
As recorded by JerryC

Transcribed by Linus "Mr. Gul" Abrahamson & Erik Alfredsson
	

Music by Johann Christoph Pachelbel
Arranged by JerryC

Gtr I (D A D G B E) - 'Strings'
Gtr II (E A D G) - 'Bass'

  Q=91
 4/4
  Gtr I
  H    H      H    H      H    H      H    H
|-----------|-----------|-----------|-----------|
|-----------|-----------|-----------|-----------|
|-----------|-----------|-----------|-----------|
|-----------|-----------|-----------|-----------|
|-5---------|-2---------|-----------|-----------|
|------7----|------4----|-5----0----|-5----7----|


      H       Q     Q       H      Q   Q
||---14------12---(12)--|--10------9--(9)--|
||o--15------17----14---|--15-----10---7---|
||--(14)----(14)--(18)--|-(19)-------------|
||----------------------|------------------|
||o---5-----------------|---2--------------|
||------------7---------|----------4-------|
      H       H             H      H


  H     Q    Q     Q   Q   Q   Q    3x
|-7-----5---(5)--|-7--(7)--9--(9)---||
|------(7)--(7)--|-----7------10---o||
|-7-----6----7---|-7-------9--------||
|----------------|------------------||
|----------------|-----------------o||
|-5-----0--------|-5-------7--------||
  H     H          H       H


  Q=200
  Gtr II
  Q  Q  H      Q  Q  H      Q  Q   q    q     Q  Q   q    q
|------------|------------|-----------------|------------------|
|------------|------------|-----------------|------------------|
|-5----------|------------|-2-----(4)--(5)--|------------------|
|------------|-5----------|-----------------|-2-----(0)--(2)---|


  Q  Q  H      Q  Q  E E E E   Q  E E E E E E   Q  E E E E E E
|------------|---------------|----------------|-----------------|
|------------|-------5-4-2---|----------------|-----------------|
|------------|-5-----------5-|----------------|-----------------|
|-3----------|---------------|-3--3-3-3-3-3-3-|-5--5-5-5-5-5-5--|


   Q  E E E E E E    Q  E E E E E E    Q  E E E E E E    Q  E E E E E E
|-----------------|-----------------|-----------------|------------------|
|-----------------|-----------------|-----------------|------------------|
|--5--5-5-5-5-5-5-|-----------------|--2--2-2-2-2-2-2-|------------------|
|-----------------|--5--5-5-5-5-5-5-|-----------------|--2--2-2-0-0-2-2--|
|
| Gtr I
|  W                 W                 W                 W
|-22--------------|-21--------------|-19--------------|-21---------------|
|-----------------|-----------------|-----------------|------------------|
|-19--------------|-18--------------|-16--------------|-18---------------|
|-----------------|-----------------|-----------------|------------------|
|-----------------|-----------------|-----------------|------------------|
|-----------------|-----------------|-----------------|------------------|


   Q  E E E E E E    Q  E E E E E E    Q  E E E E E E    Q  E E E E E E
|-----------------|-----------------|-----------------|------------------|
|-----------------|---------5-4-2---|-----------------|------------------|
|-----------------|--5--5-5-------5-|---------------2-|------------------|
|--3--3-3-3-3-3-3-|-----------------|--3--3-3-3-3-5---|--5--5-5-5-5-5-5--|
|
|  W                 W                 W                 W
|-19--------------|-----------------|-19--------------|-21---------------|
|-----------------|-19--------------|-----------------|------------------|
|-16--------------|-----------------|-16--------------|-18---------------|
|-----------------|-16--------------|-----------------|------------------|
|-----------------|-----------------|-----------------|------------------|
|-----------------|-----------------|-----------------|------------------|


    Q  E E E E E E   Q  E E E E E E   Q  E E E E E E   Q  E E E E E E
||-----------------|----------------|----------------|----------------|
||o----------------|----------------|----------------|----------------|
||o-5--5-5-5-5-5-5-|----------------|-2--2-2-2-2-2-2-|----------------|
||-----------------|-5--5-5-5-5-5-5-|----------------|-2--2-2-0-0-2-2-|


  Q  E E E E E E   Q  E E E E E E   Q  E E E E E E   Q  E E Q  Q
|----------------|----------------|----------------|----------------||
|----------------|----------------|----------------|---------------o||
|----------------|-5--5-5-5-5-5-5-|----------------|--------2--4---o||
|-3--3-3-3-3-3-3-|----------------|-3--3-3-3-3-3-3-|-5--5-5---------||


     Q  Q  E E Q     Q  Q  E E Q     Q  Q  E E Q     Q  Q  E E E E
||----------------|---------------|---------------|----------------|
||o---------------|---------------|---------------|----------------|
||o--5--5--5-5-5--|---------------|--2--2--2-4-5--|----------------|
||----------------|--5--5--5-5-5--|---------------|--2--2--2-2-0-2-|
|
|   Gtr I
|    W               W               W               W
||--22------------|-21------------|-19------------|-21-------------|
||o---------------|---------------|---------------|----------------|
||--19------------|-18------------|-16------------|-18-------------|
||----------------|---------------|---------------|----------------|
||o---------------|---------------|---------------|----------------|
||----------------|---------------|---------------|----------------|


   Q  Q  E E Q     Q  Q  E E Q     Q  Q  E E Q     E E E E Q  Q      Wx2
|---------------|---------------|---------------|-----------------||--------||
|---------------|----------4-5--|---------------|----------------o||--------||
|---------------|--5--5--5------|------------2--|----------2--4--o||--------||
|--3--3--3-3-3--|---------------|--3--3--3-5----|--5-5-5-5--------||--------||
|
|  W               W               W               W                 W
|-19------------|---------------|-19------------|-21--------------||--------||
|---------------|-19------------|---------------|----------------o||--------||
|-16------------|---------------|-16------------|-18--------------||--------||
|---------------|-16------------|---------------|-----------------||--------||
|---------------|---------------|---------------|----------------o||--------||
|---------------|---------------|---------------|-----------------||--------||


  Q  E E E E E E   Q  E E E E E E   Q  E E E E E E   Q  E E E E E E
|----------------|----------------|----------------|-----------------|
|----------------|----------------|----------------|-----------------|
|-5--5-5-5-5-5-5-|----------------|-2--2-2-2-2-2-2-|-----------------|
|----------------|-5--5-5-5-5-5-5-|----------------|-2--2-2-0-0-2-2--|


  Q  E E E E E E   Q  E E E E E E   Q  E E E E E E   Q  E E Q  Q
|----------------|----------------|----------------|---------------|
|----------------|----------------|----------------|---------------|
|----------------|-5--5-5-5-5-5-5-|----------------|--------2--4---|
|-3--3-3-3-3-3-3-|----------------|-3--3-3-3-3-3-3-|-5--5-5--------|


   Q  E E E E E E    Q  E E E E E E    Q  E E E E E E    Q  E E E E E E
|-----------------|-----------------|-----------------|------------------|
|-----------------|-----------------|-----------------|------------------|
|--5--5-5-5-5-5-5-|-----------------|--2--2-2-2-2-2-2-|------------------|
|-----------------|--2--2-2-2-2-2-2-|-----------------|--2--2-2-0-0-2-2--|
|
| Gtr I
|  W                 W                 W                 W
|-22--------------|-21--------------|-19--------------|-21---------------|
|-----------------|-----------------|-----------------|------------------|
|-19--------------|-18--------------|-16--------------|-18---------------|
|-----------------|-----------------|-----------------|------------------|
|-----------------|-----------------|-----------------|------------------|
|-----------------|-----------------|-----------------|------------------|


   Q  E E E E E E    Q  E E E E E E     Q   E E E E E E     Q   E E Q  Q
|-----------------|-----------------|-------------------|------------------||
|-----------------|-----------------|-------------------|------------------||
|-----------------|--5--5-5-5-5-5-5-|-------------------|-----------2--4---||
|--3--3-3-3-3-3-3-|-----------------|---3---3-3-3-3-3-3-|---5---5-5--------||
|
|  W                 W                  W                   W
|-24--------------|-26--------------|-[19]--------------|-[21]-------------||
|-----------------|-----------------|--24---------------|--26--------------||
|-21--------------|-23--------------|-------------------|------------------||
|-----------------|-----------------|-------------------|------------------||
|-----------------|-----------------|-------------------|------------------||
|-----------------|-----------------|-------------------|------------------||


   Q  E E E E E E    Q  E E E E E E    Q  E E E E E E    Q  E E E E E E
|-----------------|-----------------|-----------------|------------------|
|-----------------|-----------------|-----------------|------------------|
|--5--5-5-5-5-5-5-|-----------------|--2--2-2-2-2-2-2-|------------------|
|-----------------|--5--5-5-5-5-5-5-|-----------------|--2--2-2-0-0-2-2--|
|
|  W                 W                 W                 W
|-22--------------|-21--------------|-19--------------|-21---------------|
|-----------------|-----------------|-----------------|------------------|
|-19--------------|-18--------------|-16--------------|-18---------------|
|-----------------|-----------------|-----------------|------------------|
|-----------------|-----------------|-----------------|------------------|
|-----------------|-----------------|-----------------|------------------|


   Q  E E E E E E    Q  E E E E E E    Q  E E E E E E    Q  E E Q  Q
|-----------------|-----------------|-----------------|----------------|
|-----------------|-----------2-4-5-|-----------------|----------------|
|-----------------|--5--5-5-5-------|---------------2-|---------2--4---|
|--3--3-3-3-3-3-3-|-----------------|--3--3-3-3-3-5---|--5--5-5--------|
|
|  W                 W                 W                 W
|-19--------------|-----------------|-19--------------|-21-------------|
|-----------------|-19--------------|-----------------|----------------|
|-16--------------|-----------------|-16--------------|-18-------------|
|-----------------|-16--------------|-----------------|----------------|
|-----------------|-----------------|-----------------|----------------|
|-----------------|-----------------|-----------------|----------------|


    Q  E E E E E E   Q  E E E E E E   Q  E E E E E E   Q  E E E E E E
||-----------------|----------------|----------------|----------------|
||o----------------|----------------|----------------|----------------|
||o-5--5-5-5-5-5-5-|----------------|-2--2-2-2-2-2-2-|----------------|
||-----------------|-5--5-5-5-5-5-5-|----------------|-2--2-2-0-0-2-2-|


  Q  E E E E E E   Q  E E E E E E   Q  E E E E E E   Q  E E Q  Q
|----------------|----------------|----------------|----------------||
|----------------|----------------|----------------|---------------o||
|----------------|-5--5-5-5-5-5-5-|----------------|--------2--4---o||
|-3--3-3-3-3-3-3-|----------------|-3--3-3-3-3-3-3-|-5--5-5---------||


     Q  Q  E E Q     Q  Q  E E Q     Q  Q  E E Q     Q  Q  E E E E
||----------------|---------------|---------------|----------------|
||o---------------|---------------|---------------|----------------|
||o--5--5--5-5-5--|---------------|--2--2--2-4-5--|----------------|
||----------------|--5--5--5-5-5--|---------------|--2--2--2-2-0-2-|
|
|   Gtr I
|    W               W               W               W
||--22------------|-21------------|-19------------|-21-------------|
||o---------------|---------------|---------------|----------------|
||--19------------|-18------------|-16------------|-18-------------|
||----------------|---------------|---------------|----------------|
||o---------------|---------------|---------------|----------------|
||----------------|---------------|---------------|----------------|


   Q  Q  E E Q     Q  Q  E E Q     Q  Q  E E Q     E E E E Q  Q
|---------------|---------------|---------------|------------------||
|---------------|----------2-4--|---------------|-----------------o||
|---------------|--5--5--5------|------------2--|----------2--4---o||
|--3--3--3-3-3--|---------------|--3--3--3-5----|--5-5-5-5---------||
|
|  W               W               W               W
|-19------------|---------------|-19------------|-21---------------||
|---------------|-19------------|---------------|-----------------o||
|-16------------|---------------|-16------------|-18---------------||
|---------------|-16------------|---------------|------------------||
|---------------|---------------|---------------|-----------------o||
|---------------|---------------|---------------|------------------||


   Q  E E E E E E    Q  E E E E E E    Q  E E E E E E    Q  E E E E E E
|-----------------|-----------------|-----------------|------------------|
|-----------------|-----------------|-----------------|------------------|
|--5--5-5-5-5-5-5-|-----------------|--2--2-2-2-2-2-2-|------------------|
|-----------------|--5--5-5-5-5-5-5-|-----------------|--2--2-2-0-0-2-2--|
|
|  W                 W                 W                 W
|-22--------------|-21--------------|-19--------------|-21---------------|
|-----------------|-----------------|-----------------|------------------|
|-19--------------|-18--------------|-16--------------|-18---------------|
|-----------------|-----------------|-----------------|------------------|
|-----------------|-----------------|-----------------|------------------|
|-----------------|-----------------|-----------------|------------------|


   Q  E E E E E E    Q  E E E E E E    Q  E E E E E E    Q  E E Q  Q
|-----------------|-----------------|-----------------|----------------|
|-----------------|-----------------|-----------------|----------------|
|-----------------|--5--5-5-5-5-5-5-|-----------------|---------2--4---|
|--3--3-3-3-3-3-3-|-----------------|--3--3-3-3-3-3-3-|--5--5-5--------|
|
|  W                 W                 W                 W
|-19--------------|-----------------|-19--------------|-21-------------|
|-----------------|-19--------------|-----------------|----------------|
|-16--------------|-----------------|-16--------------|-18-------------|
|-----------------|-16--------------|-----------------|----------------|
|-----------------|-----------------|-----------------|----------------|
|-----------------|-----------------|-----------------|----------------|


   Q  E E E E E E    Q  E E E E E E    Q  E E E E E E    Q  E E E E E E
|-----------------|-----------------|-----------------|------------------|
|-----------------|-----------------|-----------------|------------------|
|--5--5-5-5-5-5-5-|-----------------|--2--2-2-2-2-2-2-|------------------|
|-----------------|--2--2-2-2-2-2-2-|-----------------|--2--2-2-0-0-2-2--|
|
|  W                 W                 W                 W
|-22--------------|-21--------------|-19--------------|-21---------------|
|-----------------|-----------------|-----------------|------------------|
|-19--------------|-18--------------|-16--------------|-18---------------|
|-----------------|-----------------|-----------------|------------------|
|-----------------|-----------------|-----------------|------------------|
|-----------------|-----------------|-----------------|------------------|


   Q  E E E E E E    Q  E E E E E E     Q   E E E E E E     Q   E E Q  Q
|-----------------|-----------------|-------------------|------------------||
|-----------------|-----------------|-------------------|------------------||
|-----------------|--5--5-5-5-5-5-5-|-------------------|-----------2--4---||
|--3--3-3-3-3-3-3-|-----------------|---3---3-3-3-3-3-3-|---5---5-5--------||
|
|  W                 W                  W                   W
|-24--------------|-26--------------|-[19]--------------|-[21]-------------||
|-----------------|-----------------|--24---------------|--26--------------||
|-21--------------|-23--------------|-------------------|------------------||
|-----------------|-----------------|-------------------|------------------||
|-----------------|-----------------|-------------------|------------------||
|-----------------|-----------------|-------------------|------------------||


   >
   W           +W           +W
|-----------|-------------|-------------------------|
|-----------|-------------|-------------------------|
|--5--------|--(5)--------|-(5)---------------------|
|-----------|-------------|-------------------------|
|
|                            <           <
|  W           +W            E  +E  +Q   E +E  +Q
|-22--------|-(22)--------|-------------------------|
|-----------|-------------|--7--(7)-(7)--8-(8)-(8)--|
|-19--------|-(19)--------|--7--(7)-(7)--9-(9)-(9)--|
|-19--------|-(19)--------|-------------------------|
|-----------|-------------|-------------------------|
|-----------|-------------|-------------------------|


   W           +W             W            +W
|-----------|-------------|-------------|-----------------|
|-----------|-------------|-------------|-----------------|
|--5--------|--(5)--------|-------------|-----------------|
|-----------|-------------|---5---------|--(5)------------|
|
|  W           +W             W             H       H
|-----------|-------------|-------------|-----------------|
|-----------|-------------|-------------|----------14-----|
|-14--------|-(14)--------|-(14)--------|-(14)------------|
|-16--------|-(16)--------|--14---------|--11-----(11)----|
|--5--------|--(5)--------|-------------|-----------------|
|-----------|-------------|---7---------|--(7)-----(7)----|


   W           +W            W           +W
|-----------|-------------|-----------|---------|
|-----------|-------------|-----------|---------|
|--2--------|--(2)--------|-----------|---------|
|-----------|-------------|--2--------|--(2)----|
|
|  W           +W            W            W
|-----------|-------------|-----------|---------|
|-15--------|-(15)--------|-14--------|-(14)----|
|-----------|-------------|-14--------|--11-----|
|-12--------|-(12)--------|-----------|---------|
|--2--------|--(2)--------|-----------|---------|
|-----------|-------------|--4--------|--(4)----|


   W           +W            W           +W
|-----------|-------------|-----------|---------|
|-----------|-------------|-----------|---------|
|-----------|-------------|--5--------|--(5)----|
|--3--------|--(3)--------|-----------|---------|
|
|  W           +W            W            W
|-----------|-------------|-----------|---------|
|-15--------|-(15)--------|-14--------|--15-----|
|-16--------|-(16)--------|-14--------|-(14)----|
|-----------|-------------|-----------|---------|
|-----------|-------------|-----------|---------|
|--5--------|--(5)--------|--0--------|--(0)----|


   W           +W            W           +E  E E E E E E E
|-----------|-------------|-----------|---------------------||
|-----------|-------------|-----------|---------------------||
|-----------|-------------|-----------|---------------------||
|--3--------|--(3)--------|--5--------|--(5)-5-5-5-5-5-5-5--||
|
|  W            W            W            W
|-----------|--14---------|-----------|--17-----------------||
|-15--------|-------------|-17--------|---------------------||
|-16--------|-(16)--------|-18--------|-(18)----------------||
|-----------|-------------|-----------|---------------------||
|-----------|-------------|-----------|---------------------||
|--5--------|--(5)--------|--7--------|--(7)----------------||


     Q  E E E E E E    Q  E E E E E E    Q  E E E E E E    Q  E E E E E E
||------------------|-----------------|-----------------|-----------------|
||o-----------------|-----------------|-----------------|-----------------|
||o--5--5-5-5-5-5-5-|-----------------|--2--2-2-2-2-2-2-|-----------------|
||------------------|--5--5-5-5-5-5-5-|-----------------|--2--2-2-0-0-2-2-|
|
|    W                 W                 W                 W
||--22--------------|-21--------------|-19--------------|-21--------------|
||o-----------------|-----------------|-----------------|-----------------|
||--19--------------|-18--------------|-16--------------|-18--------------|
||------------------|-----------------|-----------------|-----------------|
||o-----------------|-----------------|-----------------|-----------------|
||------------------|-----------------|-----------------|-----------------|


  1.
   Q  E E E E E E    Q  E E E E E E    Q  E E E E E E    Q  E E Q  Q
|-----------------|-----------------|-----------------|-----------------||
|-----------------|-----------2-4-5-|-----------------|----------------o||
|-----------------|--5--5-5-5-------|---------------2-|---------2--4---o||
|--3--3-3-3-3-3-3-|-----------------|--3--3-3-3-3-5---|--5--5-5---------||
|
|  W                 W                 W                 W
|-19--------------|-----------------|-19--------------|-21--------------||
|-----------------|-19--------------|-----------------|----------------o||
|-16--------------|-----------------|-16--------------|-18--------------||
|-----------------|-16--------------|-----------------|-----------------||
|-----------------|-----------------|-----------------|----------------o||
|-----------------|-----------------|-----------------|-----------------||


  2.
   Q  E E E E E E    Q  E E E E E E     Q   E E E E E E     Q   E E Q  Q
|-----------------|-----------------|-------------------|------------------||
|-----------------|-----------2-4-5-|-------------------|------------------||
|-----------------|--5--5-5-5-------|-----------------2-|-----------2--4---||
|--3--3-3-3-3-3-3-|-----------------|---3---3-3-3-3-5---|---5---5-5--------||
|
|  W                 W                  W                   W
|-24--------------|-26--------------|-[19]--------------|-[21]-------------||
|-----------------|-----------------|--24---------------|--26--------------||
|-21--------------|-23--------------|-------------------|------------------||
|-----------------|-----------------|-------------------|------------------||
|-----------------|-----------------|-------------------|------------------||
|-----------------|-----------------|-------------------|------------------||


   Q  E E E E E E    Q  E E E E E E    Q  E E E E E E    Q  E E E E E E
|-----------------|-----------------|-----------------|-----------------|
|-----------------|-----------------|-----------------|-----------------|
|--5--5-5-5-5-5-5-|--0--0-0-0-0-0-0-|--1--1-1-1-1-1-1-|-----------------|
|-----------------|-----------------|-----------------|--1--1-1-1-1-1-1-|
|
|  W                 W                 W                 W
|-25--------------|-24--------------|-22--------------|-20--------------|
|-----------------|-----------------|-----------------|-----------------|
|-22--------------|-21--------------|-19--------------|-17--------------|
|-----------------|-----------------|-----------------|-----------------|
|-----------------|-----------------|-----------------|-----------------|
|-----------------|-----------------|-----------------|-----------------|


   Q  E E E E E E    Q  E E E E E E    Q  E E  E E E E    Q  E E E E E E
|-----------------|-----------------|------------------|-----------------|
|-----------------|-----------------|------------------|-----------------|
|-------------1-3-|--5--5-5-5-5-5-5-|----------------1-|--0--0-0-2-2-4-4-|
|--3--3-3-3-3-----|-----------------|--3--3-3--3-3-3---|-----------------|
|
|  W                 W                 H       H          W
|-18--------------|-17--------------|-18------22-------|-21--------------|
|-----------------|-----------------|------------------|-----------------|
|-15--------------|-14--------------|-15------19-------|-18--------------|
|-----------------|-----------------|------------------|-----------------|
|-----------------|-----------------|------------------|-----------------|
|-----------------|-----------------|------------------|-----------------|


   Q  E E E E E E    Q  E E  E E E E    Q  E E E E E E    Q  E E  E E E E
|-----------------|------------------|-----------------|------------------|
|-----------------|------------------|-----------------|------------------|
|--5--5-5-5-5-5-5-|--0--0-0--0-0-0-0-|--1--1-1-1-1-1-1-|------------------|
|-----------------|------------------|-----------------|--1--1-1--1-1-1-1-|
|
|  W                 H       H          W                 H       H
|-25--------------|-24------27-------|-25--------------|-27------29-------|
|-----------------|------------------|-----------------|------------------|
|-22--------------|-21------24-------|-22--------------|-24------26-------|
|-----------------|------------------|-20--------------|-22---------------|
|-----------------|------------------|-----------------|---------20-------|
|-----------------|------------------|-----------------|------------------|


   Q  E E E E E E    Q  E E E E E E
|-----------------|-----------------|
|-----------------|-----------------|
|-------------1-3-|--5--5-5-5-5-5-5-|
|--3--3-3-3-3-----|-----------------|
|
|  W                 W
|-25--------------|-24--------------|
|-----------------|-----------------|
|-22--------------|-21--------------|
|-24--------------|-----------------|
|-----------------|-20--------------|
|-----------------|-----------------|


                                      2/4
   Q  E E E E E E    Q  E E E E E E    W
|-----------------|-----------------||------||
|-----------------|-----------------||------||
|---------------1-|--0--0-0-2-2-4-4-||------||
|--3--3-3-3-3-3---|-----------------||------||
|
|  W                 W                 W
|-27--------------|-29--------------||------||
|-----------------|-----------------||------||
|-24--------------|-26--------------||------||
|-----------------|-----------------||------||
|-25--------------|-----------------||------||
|-----------------|-26--------------||------||


 4/4
   W                     Q  E E E E E E    Q  E E E E E E    Q  E E E E E E
|---------------------|-----------------|-----------------|-----------------|
|---------------------|-----------------|-----------------|-----------------|
|---------------------|-----------------|--2--2-2-2-2-2-2-|-----------------|
|---------------------|--5--5-5-5-5-5-5-|-----------------|--2--2-2-0-0-2-2-|
|
|  q   E  E  q   E  E    W                 W                 W
|-17--14-15-17--14-15-|-21--------------|-19--------------|-21--------------|
|---------------------|-----------------|-----------------|-----------------|
|---------------------|-18--------------|-16--------------|-18--------------|
|-12--12-14-16--16-17-|-----------------|-----------------|-----------------|
|---------------------|-----------------|-----------------|-----------------|
|---------------------|-----------------|-----------------|-----------------|


   Q  E E E E E E    Q  E E E E E E    Q  E E E E E E    Q  E E Q  Q
|-----------------|-----------------|-----------------|----------------|
|-----------------|-----------2-4-5-|-----------------|----------------|
|-----------------|--5--5-5-5-------|---------------2-|---------2--4---|
|--3--3-3-3-3-3-3-|-----------------|--3--3-3-3-3-5---|--5--5-5--------|
|
|  W                 W                 W                 W
|-19--------------|-----------------|-19--------------|-21-------------|
|-----------------|-19--------------|-----------------|----------------|
|-16--------------|-----------------|-16--------------|-18-------------|
|-----------------|-16--------------|-----------------|----------------|
|-----------------|-----------------|-----------------|----------------|
|-----------------|-----------------|-----------------|----------------|


   Q  E E E E E E    Q  E E E E E E    Q  E E E E E E    Q  E E E E E E
|-----------------|-----------------|-----------------|------------------|
|-----------------|-----------------|-----------------|------------------|
|--5--5-5-5-5-5-5-|-----------------|--2--2-2-2-2-2-2-|------------------|
|-----------------|--2--2-2-2-2-2-2-|-----------------|--2--2-2-0-0-2-2--|
|
|  W                 W                 W                 W
|-22--------------|-21--------------|-19--------------|-21---------------|
|-----------------|-----------------|-----------------|------------------|
|-19--------------|-18--------------|-16--------------|-18---------------|
|-----------------|-----------------|-----------------|------------------|
|-----------------|-----------------|-----------------|------------------|
|-----------------|-----------------|-----------------|------------------|


   Q  E E E E E E    Q  E E E E E E     Q   E E E E E E     Q   E E Q  Q
|-----------------|-----------------|-------------------|------------------||
|-----------------|-----------------|-------------------|------------------||
|-----------------|--5--5-5-5-5-5-5-|-------------------|-----------2--4---||
|--3--3-3-3-3-3-3-|-----------------|---3---3-3-3-3-3-3-|---5---5-5--------||
|
|  W                 W                  W                   W
|-24--------------|-26--------------|-[19]--------------|-[21]-------------||
|-----------------|-----------------|--24---------------|--26--------------||
|-21--------------|-23--------------|-------------------|------------------||
|-----------------|-----------------|-------------------|------------------||
|-----------------|-----------------|-------------------|------------------||
|-----------------|-----------------|-------------------|------------------||


   Q  E E E E E E    Q  E E E E E E    Q  E E E E E E    Q  E E E E E E
|-----------------|-----------------|-----------------|------------------|
|-----------------|-----------------|-----------------|------------------|
|--5--5-5-5-5-5-5-|-----------------|--2--2-2-2-2-2-2-|------------------|
|-----------------|--5--5-5-5-5-5-5-|-----------------|--2--2-2-0-0-2-2--|
|
|  W                 W                 W                 W
|-22--------------|-21--------------|-19--------------|-21---------------|
|-----------------|-----------------|-----------------|------------------|
|-19--------------|-18--------------|-16--------------|-18---------------|
|-----------------|-----------------|-----------------|------------------|
|-----------------|-----------------|-----------------|------------------|
|-----------------|-----------------|-----------------|------------------|


   Q  E E E E E E    Q  E E E E E E    Q  E E E E E E    Q  E E Q  Q
|-----------------|-----------------|-----------------|----------------|
|-----------------|-----------2-4-5-|-----------------|----------------|
|-----------------|--5--5-5-5-------|---------------2-|---------2--4---|
|--3--3-3-3-3-3-3-|-----------------|--3--3-3-3-3-5---|--5--5-5--------|
|
|  W                 W                 W                 W
|-19--------------|-----------------|-19--------------|-21-------------|
|-----------------|-19--------------|-----------------|----------------|
|-16--------------|-----------------|-16--------------|-18-------------|
|-----------------|-16--------------|-----------------|----------------|
|-----------------|-----------------|-----------------|----------------|
|-----------------|-----------------|-----------------|----------------|


   Q  E E E E E E    Q  E E E E E E    Q  E E E E E E    Q  E E E E E E
|-----------------|-----------------|-----------------|------------------|
|-----------------|-----------------|-----------------|------------------|
|--5--5-5-5-5-5-5-|-----------------|--2--2-2-2-2-2-2-|------------------|
|-----------------|--2--2-2-2-2-2-2-|-----------------|--2--2-2-0-0-2-2--|
|
|  W                 W                 W                 W
|-22--------------|-21--------------|-19--------------|-21---------------|
|-----------------|-----------------|-----------------|------------------|
|-19--------------|-18--------------|-16--------------|-18---------------|
|-----------------|-----------------|-----------------|------------------|
|-----------------|-----------------|-----------------|------------------|
|-----------------|-----------------|-----------------|------------------|


   Q  E E E E E E    Q  E E E E E E     Q   E E E E E E     W
|-----------------|-----------------|-------------------|---------||
|-----------------|-----------------|-------------------|---------||
|-----------------|--5--5-5-5-5-5-5-|-------------------|---0-----||
|--3--3-3-3-3-3-3-|-----------------|---3---3-3-3-3-3-3-|---------||
|
|  W                 W                  W                   W
|-24--------------|-26--------------|-[19]--------------|-[21]----||
|-----------------|-----------------|--24---------------|--26-----||
|-21--------------|-23--------------|-------------------|---------||
|-----------------|-----------------|-------------------|---------||
|-----------------|-----------------|-------------------|---------||
|-----------------|-----------------|-------------------|---------||


  Q=91
    H       H         H       H         H       H         H       H
|-----------------|-----------------|-----------------|-----------------|
|-----------------|-----------------|-----------------|---5-------------|
|---5-------------|---2-------------|-----------5-----|-----------0-----|
|-----------5-----|-----------2-----|---3-------------|-----------------|
|
|   H       H         H       H         H       H         H       H
|-(22)----(21)----|-(19)----(21)----|-(19)------------|-(19)----(21)----|
|-----------------|-----------------|---------(19)----|-----------------|
|--19------18-----|--16------18-----|--16------14-----|--16------18-----|
|--12------11-----|---9------11-----|---9-------7-----|---5-------7-----|
|---5-------------|---2-------------|-----------------|-----------------|
|-----------7-----|-----------4-----|---5-------0-----|---5-------7-----|
    H       H         H       H         H       H         H       H


  H.=H
    H       H         H       H        H          H       H     H
|-----------------|-----------------|------------------|-------------|
|-----------------|-----------------|------------------|--5----------|
|---5-------------|---2-------------|-------------5----|--------0----|
|-----------5-----|-----------2-----|--3---------------|-------------|
|
|   H       H         H       H        Q.     E   H       H     H
|-(22)----(21)----|-(19)-----21-----|-19----(19)-------|-19----21----|
|--19------20-----|--19-----(19)----|------------19----|-------------|
|--19------18-----|--16------18-----|-16----(16)-14----|-16----18----|
|--12------11-----|---9------11-----|--9-----11--12----|-17----14----|
|---5-------------|---2-------------|------------12----|-10----12----|
|-----------7-----|-----------4-----|--5----------0----|--5-----7----|
    H       H         H       H        H          H       H     H


  Q=85
   H.      Q      H.        Q      W            +W
|-------------|----------------|-------------|---------*|
|-------------|----------------|-------------|---------*|
|--5----------|---5------------|---5---------|--(5)----*|
|----------5--|-------------5--|-------------|---------*|
|
|                                                >
|  W              H      H         W            +W
|-14----------|--12-----15-----|--14---------|-(14)----*|
|-15----------|-(15)-----------|--15---------|-(15)----*|
|-14----------|-(14)-----------|-(14)--------|-(14)----*|
|-12----------|-(12)-----------|-(12)--------|-(12)----*|
|-12----------|-(12)-----------|-(12)--------|-(12)----*|
|--0----------|--(0)-----------|--(0)--------|--(0)----*|
   W             +W                W            +W



Duration Legend
---------------
W - whole; H - half; Q - quarter; E - 8th; S - 16th; T - 32nd; X - 64th; a - acciaccatura
+ - note tied to previous; . - note dotted; .. - note double dotted
Uncapitalized letters represent notes that are staccato (1/2 duration)
Irregular groupings are notated above the duration line
Duration letters will always appear directly above the note/fret number it represents the
duration for.  Duration letters with no fret number below them represent rests.  Multi-
bar rests are notated in the form Wxn, where n is the number of bars to rest for.  Low
melody durations appear below the staff

Tablature Legend
----------------
 h   - hammer-on
 p   - pull-off
 b   - bend
 pb  - pre-bend
 r   - bend release (if no number after the r, then release immediately)
 /\  - slide into or out of (from/to "nowhere")
 s   - legato slide
 S   - shift slide
<n> - natural harmonic
[n]  - artificial harmonic
n(n) - tapped harmonic
 ~   - vibrato
 tr  - trill
 T   - tap
 TP  - trem. picking
 PM  - palm muting
\n/  - tremolo bar dip; n = amount to dip
 \n  - tremolo bar down
 n/  - tremolo bar up
/n\  - tremolo bar inverted dip
 =   - hold bend; also acts as connecting device for hammers/pulls
 <> - volume swell (louder/softer)
 x   - on rhythm slash represents muted slash
 o   - on rhythm slash represents single note slash

Misc Legend
-----------
 |  - bar
||  - double bar
||o - repeat start
o|| - repeat end
*|  - double bar (ending)
 :  - bar (freetime)
 $  - Segno
 &  - Coda
Tempo markers - <E/E./Q/Q./H/H.> = BPM(8/16=s8/s16), where s8 = swing 8ths, s16 = swing 16ths

comments
We did not receive enough feedback on this tab! Please rate:
print report bad tab
1 2 3 4 5
I want to post or [tab]
guest
You may want to rate the tab now too:
select rating
Please do not post tabs as comments. Select "correction" instead!