Oops, an error
Loading. Please wait.

No More Distance Tab

ver1
ver1

Intro

Whole song

Interactive

More versions @911Tabs.com
5,207 views 1 this week
6 commentsread comments
1 2 3 4 5
excellent!
x 5
Autoscroll
+/-
esc
set tempo
stop
Contributor
Difficulty
advanced
Hey! There's an official Ultimate Guitar app which is ideal
for learning songs when you're away from computer. Get the app
WARNING: You are trying to view
                                    content from Ultimate-Guitar.com
                                    in an unauthorized application,
                                    which is prohibited.

                                    Please use an official Ultimate
                                    Guitar Tabs application for iPhone,
                                    iPad or Android to access legitimate
                                    chords, guitar, bass, and drum tabs
                                    from Ultimate-Guitar.com database.

                                    Type "ultimate guitar tabs" in Apple
                                    App Store's or Android Market's
                                    search to find the application.
NO MORE DISTANCE BY JERRYC

Tabbed by shaq147

TOOK A WHILE TO TAB IT. ITS PRETTY DAMN PERFECT.
ANY CORRECTIONS PLEASE COMMENT.
GOOD LUCK LOOKIN FOR CORRECTIONS THOUGH :|


E   E   E   E   E   E   E   E    E   E   E   E   E   E  E   E
--------------------------------|-------------------------------|
----12-/14------15-\14----------|-------------------------------|
------------------------16-\14--|----16-\14------13-----11-/13--|
--------------------------------|12----------11------9----------|
12----------11------------------|-------------------------------|
--------------------------------|-------------------------------|


E   E   E   E   E   E   E   E    E   E   E   E   E  E   Q
--------------------------------|---------------------------|
----12-/14------15-\14----------|---------------------------|
------------------------16-\14--|----16-\14-----------------|
--------------------------------|12----------11-\9----------|
12----------11------------------|-------------------12-\7~~~|
--------------------------------|---------------------------|


E   E   E   E   E   E   E   E    E   E   E   E   E   E  E   E
--------------------------------|-------------------------------|
----12-/14------15-\14----------|-------------------------------|
------------------------16-\14--|----16-\14------13-----11-/13--|
--------------------------------|12----------11------9----------|
12----------11------------------|-------------------------------|
--------------------------------|-------------------------------|


E   E   E   E   E   E   E   E    E   E   E   E  E  E   Q
--------------------------------|----------------------------|
----12-/14------15-\14----------|----------------------------|
------------------------16-\14--|----16-\14---------13--14---|
--------------------------------|12----------9-/11-----------|
12----------11------------------|----------------------------|
--------------------------------|----------------------------|


E   E   E   E   E   E   E   E    E   E   E   E   E   E  E   E
----------------16-\12----------|-------------------------------|
----12-/14----------------------|-------------------------------|
------------------------11-/13--|----16-\14------13-----11-\13--|
--------------------------------|12----------11------9----------|
12----------14------------------|-------------------------------|
--------------------------------|-------------------------------|


E   E   E   E   E   E   E   Q     E   E   E   E  E   Q
----------------19-\17-----------|-----------------------|
----12-/17--------------17-\14~--|-----------------------|
---------------------------------|----16-----------------|
---------------------------------|12------11-\9----------|
12----------16-------------------|---------------12-\7---|
---------------------------------|-----------------------|


E   E   E   E   E   E   E   E    E   E   E   E   E   E  E   E
----------------16-\12----------|-------------------------------|
----12-/14----------------------|-------------------------------|
------------------------11-/13--|----16-\14------13-----11-\13--|
--------------------------------|12----------11------9----------|
12----------14------------------|-------------------------------|
--------------------------------|-------------------------------|


E   E   E   E   E   E   E   Q     E   E   E   E  E   Q
----------------19-\17-----------|-----------------------|
----12-/17--------------17-\14~--|-----------------------|
---------------------------------|----16---------13--14--|
---------------------------------|12------9-/11----------|
12----------16-------------------|-----------------------|
---------------------------------|-----------------------|


E   E   E   E   T  E   S  S  Q    E   E   S  E   E   E   S  S  E   E   E
----------------17g15--14h15p14------------------17/.----------------------|
----15-/17------------------------15------15/17----------------------------|
------------14------------------------13-----------------------------------|
12---------------------------------------------------14--12h14p12----------|
-------------------------------------------------------------------14--11--|
---------------------------------------------------------------------------|

                      P.M              P.M-|
E   E   E   E   E   E  E   Q   E  E  E  E  E  E
-------------------------------------------------|
----12-/14------15-\14-----9---7--9--9b-9--7-----|
--------------------------------------------<>9--|
-------------------------------------------------|
12----------11----------9------------------------|
-------------------------------------------------|


E  E  E  E  E  E   W      Q   E  E  E  E  Q   E  E  E  E  Q   E  E  E  E  E  E
------------------------|-------------------------------------------------------|
---6-/7-----9-/10-------|-------------------------------------------------------|
-------------------9---\|-----------------7---7--7--7--7--9---9--9--9--9--9--9--|
-------------------9---\|-2---2--2--2--2--7---7--7--7--7--9---9--9--9--9--9--9--|
5--------6---------7---\|-2---2--2--2--2--5---5--5--5--5--7---7--7--7--7--7--7--|
-------------------0---\|-0---0--0--0--0--0---0--0--0--0--0---0--0--0--0--0--0--|


E   E   E   Q    Q    H    Q    E   E   E   E   E   W
-----------------19---17--\------------------------------|
----12-/14-/17-------------14br-12-\10--12-/14-----------|
------------------------------------------------14-\9~~~~|
---------------------------------------------------------|
12-------------------------------------------------------|
---------------------------------------------------------|


E   E   E   Q    Q    H    Q    E   E   Q    E  S  W     E   E  E   Q
-----------------19---17--\---------------------------------------------|
----12-/14-/17-------------15br-14--12--12------10/14~~-----------------|
---------------------------------------------9--------------------------|
---------------------------------------------------------11-\9-/11-\7---|
12----------------------------------------------------------------------|
------------------------------------------------------------------------|


E   E   E   Q    Q    H    Q    E   E   E   E   E   W
-----------------19---17--\------------------------------|
----12-/14-/17-------------14br-12-\10--12-/14-----------|
------------------------------------------------14-\9~~~~|
---------------------------------------------------------|
12-------------------------------------------------------|
---------------------------------------------------------|

E   E   E   Q    Q    Q    Q    Q    E  E   E   Q    E   E   E   Q
---------------------------12-----------------------------------------|
----12--14-------14br-12---12---12---9--10-/12-\10~~~14-\10-/17-\10---|
11----------11--------------------------------------------------------|
----------------------------------------------------------------------|
----------------------------------------------------------------------|
----------------------------------------------------------------------|


E   E   E   Q    Q    H    Q    E   E   E   E   E   H
-----------------19---17--\-----------------------------|
----12-/14-/17-------------14br-12-\10--12-/14----------|
------------------------------------------------14-\9~~-|
--------------------------------------------------------|
12------------------------------------------------------|
--------------------------------------------------------|


 S S S S S  S  S  S  S  S  S  S  S  S  S  Q    E   E
/9-9-9-9/10-10-10-10/11-11-11-11/12-12-12-12---14------|
-x-x-x-x-x--x--x--x--x--x--x--x--x--x--x--x--------12--|
/6-6-6-6/7--7--7--7-/8--8--8--8-/9--9--9--9------------|
-------------------------------------------------------|
-------------------------------------------------------|
-------------------------------------------------------|


E   E   E   Q    Q    H    H     E   E   Q    E   H
-----------------19~~~17---21br--19--17--19-------19b--|
----12-/14-/17--------------------------------17-------|
-------------------------------------------------------|
-------------------------------------------------------|
12-----------------------------------------------------|
-------------------------------------------------------|


S  S  S  S  S  S  S  S  S  S  S  S  S  S  S  S  S  S  S  S  S  S  S  E
19-17-16-17--------------------------------------------------------------|
------------19-17-16-14-16-14--------------------------------------------|
------------------------------16-14-13-14-16-14-13-----------------------|
---------------------------------------------------14-11-12-14-12-11-----|
---------------------------------------------------------------------14--|
-------------------------------------------------------------------------|

                                             WHAMMY BAR|
E   E   E   Q    Q    H    H    E   E   Q    E   W     E   E   E   H
-----------------19---17--\---------------------------------------------|
----12-/14-/17-------------14br-12-\10--12---17--14~~~~-----------------|
-------------------------------------------------------16--14-----------|
---------------------------------------------------------------16--14---|
12----------------------------------------------------------------------|
------------------------------------------------------------------------|


S  E   E  E   S  E   E  E   S  E   E  E   S  E   E  E  E   H    S  T  H    E   Q
-----------------------------------17-17---------17-17-17--19br-17-19g21b-r21--17---|
----------------------------17h19--17-17--17h19--17-17------------------------------|
-------14-14---------14-14----------------------------------------------------------|
14h16--14-14--14h16--14-14----------------------------------------------------------|
------------------------------------------------------------------------------------|
------------------------------------------------------------------------------------|


S  E   S  E   S  E   S  E   S E   S E   Q
16t17--14t17--12t17--10t17--9t17--7t17--5/--|
--------------------------------------------|
--------------------------------------------|
--------------------------------------------|
--------------------------------------------|
--------------------------------------------|


Q   E  Q   Q   Q   E  Q   E  E  E   E   E   E   H     E   E   E   H     Q   E  Q   Q   Q 
 E  E  E
2---2--4---4---5---5--7---7--7------------------19brb-16--------------|-2---2--4--
2---2--5---5---5---5--9---9--9-/10--12--14-/17------------17----------|-2---2--5--
3---3--6---6---7---7--9---9--9--------------------------------18--14--|-3---3--6--
4---4--6---6---7---7--9---9--9----------------------------------------|-4---4--6--
4---4--4---4---5---5--7---7--7----------------------------------------|-4---4--4--
2---2-----------------7---7--7----------------------------------------|-2---2-----

-4---5---5--------|
-5---5---5--------|
-6---7---7--7-----|
-6---7---7--7-----|
-4---5---5-/6--6--|
------------------|


S S S  S  S S S  S S S S  S  S  S S  S  S  S S  S  S S
-------------------7-9-11t12t11-9-7--------------------|
------------------------------------t12p10p9p7---------|
-----------------------------------------------t13p9p7-|
----------6-7-9t14-------------------------------------|
7-9-11t14----------------------------------------------|
-------------------------------------------------------|


T  T  T  T  T  T  T  T  T  T  T  T  T  T  T  T  T  T
12h14t16p12h14t16p12h14t16p12h14t16p12h14t16p12h14t16p|
------------------------------------------------------|
------------------------------------------------------|
------------------------------------------------------|
------------------------------------------------------|
------------------------------------------------------|


T  T  T  T  T  T  T  T  T  T  T  T  T  T  T  T  T  T
12h15t17p12h15t17p12h15t17p12h15t17p12h15t17p12h15t17p|
------------------------------------------------------|
------------------------------------------------------|
------------------------------------------------------|
------------------------------------------------------|
------------------------------------------------------|


T  T  T  T  T  T  T  T  T  T  T  T  T  T  T  T  T  T  T  T  Q
12h16t18p12h16t18p12h16t18p12h16t18p12h16t18p12h16t18p12h17p19--/|
-----------------------------------------------------------------|
-----------------------------------------------------------------|
-----------------------------------------------------------------|
-----------------------------------------------------------------|
-----------------------------------------------------------------|


E   E   E   E   E   E   E   E    E   E   E   E   E   E  E   E
--------------------------------|-------------------------------|
----12-/14------15-\14----------|-------------------------------|
------------------------16-\14--|----16-/14------13-----11-/13--|
--------------------------------|12----------11------9----------|
12----------11------------------|-------------------------------|
--------------------------------|-------------------------------|


E   E   E   E   E   E   E   E    E   E   E   E   E  E   Q
--------------------------------|---------------------------|
----12-/14------15-\14----------|---------------------------|
------------------------16-\14--|----16-\14-----------------|
--------------------------------|12----------11-/9----------|
12----------11------------------|-------------------12-/7~~~|
--------------------------------|---------------------------|


E   E   E   E   E   E   E   E    E   E   E   E   E   E  E   E
----------------16-\12----------|-------------------------------|
----12-/14----------------------|-------------------------------|
------------------------11-/13--|----16-\14------13-----11-/13--|
--------------------------------|12----------11------9----------|
12----------14------------------|-------------------------------|
--------------------------------|-------------------------------|


E   E   E   E   E   E   E   Q     S  S  S  S  S  S  S  S  E   S  S  S  S  Q
----------------19-\17-----------|------------------------16--17----------17---|
----12-/17--------------17-\14---|------------------17-19--------19------------|
---------------------------------|---------14-16-18-----------------18---------|
---------------------------------|14-16-18-----------------------------19------|
12----------16-------------------|---------------------------------------------|
---------------------------------|---------------------------------------------|

WHAMMY BAR----------------------------------------|
E   H     E   E   H     S  E  E   E   E   E  E  Q   E  Q
-----------------------------------------------------------|
17x-17b~~~12--14--14b~r-12-12p10~~10--10-p9-p7-------<>10--|
------------------------------------------------9-<>9------|
-----------------------------------------------------------|
-----------------------------------------------------------|
-----------------------------------------------------------|

                         WB--|                              WB----|
S S S S S S S S S S S S S Q    E  E  E  E  E  E   E  E   E
------------------------------------------------------------------|
------------------------------------------------------------------|
6-7-9-7-6---------------------------9--------11---------13-/14~~~-|
----------9-7-6-4-6-7-6-4-6~~~6-/7-----7-/9------9-/11------------|
------------------------------------------------------------------|
------------------------------------------------------------------|


S  E   Q    S  E     Q    H     T  E   E   E   E   E   E   E   E   E   H    S  E   H     
    Q
---------------------15b--17~~-|---------------------------------------19---17h19--19b~~~19b~19b|
-------14b--14p12--------------|19g17------17--------------15-/17--17---------------------------|
-------------------------------|-------18------18--16-\14---------------------------------------|
16p14--------------------------|----------------------------------------------------------------|
-------------------------------|----------------------------------------------------------------|
-------------------------------|----------------------------------------------------------------|


E  E   T  T  T  T  E   S S  S  S  S S  T  T  T  T  T T  T  T  T  T  T T  T  T  T  T  T T 
T  T  T  T  T
19p17--17t19p17t19p17--9h10h12p10p9h10h12t17p12p10p9h10h12t16p12p10p9h10h12t17p12|
----------------------------------------------------------------------------------
----------------------------------------------------------------------------------
----------------------------------------------------------------------------------
----------------------------------------------------------------------------------
----------------------------------------------------------------------------------

p10p9h10h12t17p12p10p9|
---------------------|
---------------------|
---------------------|
---------------------|
---------------------|


S S  S  S  S  S  S S  S S  S  S  S S  S  S  E  S  E
------------------|-----------------------------------|
9h10h12t17p12p10p9|-----------------------------------|
------------------|11p9h11t16p11p9h11t16p11p9/-11\9---|
------------------|-----------------------------------|
------------------|-----------------------------------|
------------------|-----------------------------------|


S E   E   E   S E   E   E   H     E   E   S  S  S  S S  E   H
----------------------------------12----------------------------|
------10--10--------10-(10)-12brb----r12--12p10-----------------|
9h11--9-------9h11------------------------------11p9------------|
-----------------------------------------------------11p9-<>7---|
----------------------------------------------------------------|
----------------------------------------------------------------|


Q   S  S  S  S   S  S  S  S   S  S  S  E   E  T  E   E   E   H
---------------------------------------------------------17--19---|
-------------------------------------------17-16g17--19-----------|
------------------------------------------------------------------|
9---11-11-11-11-/12-12-12-12-/14-14-14-14-------------------------|
------------------------------------------------------------------|
------------------------------------------------------------------|


E   E   E   Q   E  E   E   E   E   E   Q    E   E   E    E   E   E   E   H      E   E   E  E   E E
--------16--16b-r---------------------------------------|----------------19brb-16----------------|
----17-------------17------------------14br-------------|10--12-/14-/17------------17------------|
-----------------------18--14------14-------16--13------|---------------------------18-\14-\11-\9|
19-----------------------------16-------------------14--|----------------------------------------|
--------------------------------------------------------|----------------------------------------|
--------------------------------------------------------|----------------------------------------|

                                                                         P.M
E  Q   E   S S  S  S  E   Q    E  S E  E  S E  E  S E  S S E  E  S S S E  S E  S S S S S E
--------------------------14---0--0-0--0--0-0--0--0-0--0-0-0--3--3-3-3-3----3--3-3-3-3-3-3--|
-------12--12---------12--15---0--0-0--0--0-0--3--3-3--3-3-3--3--3-3-3-3----3--3-3-3-3-3-3--|
---9---13--13---13/14-14--16---0--0-0--3--3-3--3--3-3--3-3-3--4--4-4-4-4----4--4-4-4-4-4-4--|
9-(9)--13----13-13/14-14--16---2--2-2--2--2-2--2--2-2--2-2-2--5--5-5-5-5--5-5--5-5-5-5-5-5--|
-------11-------------12--14---2--2-2--2--2-2--2--2-2--2-2-2--5--5-5-5-5--5-5--5-5-5-5-5-5--|
-------------------------------0--0-0--0--0-0--0--0-0--0-0-0--3--3-3-3-3--3-3--3-3-3-3-3-3--|


 E   E   E   E   H    H   E   E  S  S  E   E   Q   E    Q
----------------20b~~r--------------------------------------|
13--15-/16-/20-----------16b-r--15h16p15--13--15------------|
---------------------------------------------------13--12---|
------------------------------------------------------------|
------------------------------------------------------------|
------------------------------------------------------------|


S  S  S  S  S  S  S  S S  S  S  S S S S  S S S S S S S S S S S S S S S S
-------------------------------------------------------------------------|
-------------------------------------------------------------------------|
---10-12-13-12-10--------------------------------------4-5-7-5-4---------|
12----------------12-9-10-12-10-9-7-9-10-9-7-5-7-8-7-5-----------7-5-4---|
-----------------------------------------------------------------------5\|
-------------------------------------------------------------------------|

P.M-|
E  E  E  E  E  E  E  Q    E   E  E   Q
---------------8--10-10b-r10-p8-----------|
------------8--------------------11b-11b--|
---5--7-/8--------------------------------|
5-----------------------------------------|
------------------------------------------|
------------------------------------------|


S S E   S S S E   S S S S  S S  S S  S S  S H      E   E   E   E   Q
8---------8---------8------8-11-8---------8-11b/-|----------------19b--|
--8-----8---8-----8---8-11--------11-8-11--------|13--15-/17--20-------|
----10b-------10b--------------------------------|---------------------|
-------------------------------------------------|---------------------|
-------------------------------------------------|---------------------|
-------------------------------------------------|---------------------|


T  T  T  T  Q    T  T  T  T  T  Q    T  T  T  T  T  Q    T  T  T  T  T  E  Q
17h19p17p15\13---13h15h17p15p13\12---12h13h15p13p12\10---10h12h13p12p10\8------|
---------------------------------------------------------------------------8---|
-------------------------------------------------------------------------------|
-------------------------------------------------------------------------------|
-------------------------------------------------------------------------------|
-------------------------------------------------------------------------------|


S S  S  S  S S  S S  Q    S S S  S S S  S S S  Q   E  H
----------------------------------------------------------|
8h10h12p10p8----------------------------------------------|
-------------10p9h10h12---9p7---------------------/9--7---|
------------------------------10p9p7----------------------|
-------------------------------------10p8p7---------------|
--------------------------------------------10p8----------|

              WHAMMY BAR------------------|
E  Q   Q   Q   Q    Q    Q    Q    E   Q    Q
-------------------------------------------------|
-----------8--/13---15--/17---20---13-/20-<>17~~~|
5--7--/9-----------------------------------------|
-------------------------------------------------|
-------------------------------------------------|
-------------------------------------------------|


S  S  S  S  S  S  S  S  S  S  S  S  S  S  S  S  S  E
---------17-19-20-20-17-------------------------17-20--|
17-18-20----------------20-20-17-------17-20-20--------|
---------------------------------19-19-----------------|
-------------------------------------------------------|
-------------------------------------------------------|
-------------------------------------------------------|


S E  E  E  S E  E  E  S E  E  E  S E  E  E  E  S S S S S S
----------------------------------------------------------|
----------------------------------------------------------|
-----5--5-----<>5--5-------5--5-------5--5--7--5----------|
5h7--------5h7--------5h7--------5h7-------------7-5------|
-----------------------------------------------------7-5-3|
----------------------------------------------------------|


S E  E  E  S E  E  E  E  E S S S S S S S S S S S S E
------------------------------------------------------|
----------------------5b-r----------------------------|
-----5--5-------5--5-------7-5-----5------------------|
5h7--------5h7-----------------7-5---7-5---5----------|
-----------------------------------------7---7-5-3-5--|
------------------------------------------------------|


S  E   E   E   S  E   E   E   S  E   E   E   S  E   E   E   S  S  S  S  S  S  S
--------------------------------------------------------------------------------|
-------13--13---------13--13---------13--13---------13--13--15-13---------------|
12h14----------12h14----------12h14----------12h14----------------14-12---------|
------------------------------------------------------------------------14-12-10|
--------------------------------------------------------------------------------|
--------------------------------------------------------------------------------|


S  E   E   E   S  E   E   E   E   E  S  S  S  S  S  S  S  S  S  S  S  S  E
------------------------------12b-r------------------------------------------|
-------13--13---------13--13---------15-13-------13--------------------------|
12h14----------12h14-----------------------14-12----14-12----12--------------|
----------------------------------------------------------14----14-12-10-12--|
-----------------------------------------------------------------------------|
-----------------------------------------------------------------------------|


Q   Q   S  S  S  S  S  S  S  S  S  E   E   E   E   E   S  Q    E   S  E
15b-r/--12-13-14-15-14-13-12----------------------------------------------|
-----------------------------15-13---------------------------------17\13--|
-----------------------------------14--12--------------12/14---12---------|
-------------------------------------------14--12--10---------------------|
--------------------------------------------------------------------------|
--------------------------------------------------------------------------|


S  S  S  S  S  S  S  S  S  S  S  S  E
------12-------12-12--------------------|
------13----------13-13-----------------|
12h14----14p12----------14p12-----------|
------------------------------14p12\10--|
----------------------------------------|
----------------------------------------|


Q   Q    E   E   E   E   Q    E   Q    Q    S   H
12-/15---15--15--12-/15--15---17---------------/20---|
x---x----x---x--------------------15br-13---13-------|
9--/12---12--12--------------------------------------|
-----------------------------------------------------|
-----------------------------------------------------|
-----------------------------------------------------|


T  T  T  T  T  T  S  S  S  S  S  S  S  S  S  S  S  S  S  S  S  S  S  S  S  S
------------------------------------------------------------------------------|
---17h18p17-------15----------------------------------------------------------|
19----------19-17----14-11----11-13-14-11-------------------------------------|
---------------------------14-------------14-12-11-14-12-11-------------------|
------------------------------------------------------------14-12-11-14-12-11-|
------------------------------------------------------------------------------|


E   E   E   Q    Q    H    Q     E   E   E   E   E   Q    E   E   E   E   E   E   H
-----------------19---17--\-----------------------------|12--12-s14--14--12--14-------|
----12-/14-/17-------------14br-12-\10--12-/14----------|----------------------<>14~~~|
------------------------------------------------14-\9---|-----------------------------|
--------------------------------------------------------|-----------------------------|
12------------------------------------------------------|-----------------------------|
--------------------------------------------------------|-----------------------------|


E   E   E   Q    Q    H    H     E   E   Q    E   H
-----------------19~~~17---21br--19--17--19-------19b--|
----12-/14-/17--------------------------------17-------|
-------------------------------------------------------|
-------------------------------------------------------|
12-----------------------------------------------------|
-------------------------------------------------------|


S  S  S  S  S  S  S  S  S  S  S  S  S  S  S  S  S  S  S  S  S  S  S  E
19-17-16-17--------------------------------------------------------------|
------------19-17-16-14-16-14--------------------------------------------|
------------------------------16-14-13-14-16-14-13-----------------------|
---------------------------------------------------14-11-12-14-12-11-----|
---------------------------------------------------------------------14--|
-------------------------------------------------------------------------|

                                             WHAMMY BAR|
E   E   E   Q    Q    H    H    E   E   Q    E   W     E   E   E   H
-----------------19---17--\---------------------------------------------|
----12-/14-/17-------------14br-12-\10--12---17--14~~~~-----------------|
-------------------------------------------------------16--14-----------|
---------------------------------------------------------------16--14---|
12----------------------------------------------------------------------|
------------------------------------------------------------------------|


S  E   E  E   S  E   E  E   S  E   E  E   S  E   E  E  E   H    S  T  H    E   Q
-----------------------------------17-17---------17-17-17--19br-17-19g21b-r21--17---|
----------------------------17h19--17-17--17h19--17-17------------------------------|
-------14-14---------14-14----------------------------------------------------------|
14h16--14-14--14h16--14-14----------------------------------------------------------|
------------------------------------------------------------------------------------|
------------------------------------------------------------------------------------|


S  E   S  E   S  E   S  E   S E   S  E   S  E   Q
16t17--14t17--12t17--10t17--9t17--10t17--12t17--5/--|
----------------------------------------------------|
----------------------------------------------------|
----------------------------------------------------|
----------------------------------------------------|
----------------------------------------------------|


E   E   E   E   E   E   E   E    E   E   E   E   E   E  E   E
--------------------------------|-------------------------------|
----12-/14------15-\14----------|-------------------------------|
------------------------16-\14--|----16-\14------13-----11-/13--|
--------------------------------|12----------11------9----------|
12----------11------------------|-------------------------------|
--------------------------------|-------------------------------|


E   E   E   E   E   E   E   E    E   E   E   E   E  E   Q
--------------------------------|---------------------------|
----12-/14------15-\14----------|---------------------------|
------------------------16-\14--|----16-\14-----------------|
--------------------------------|12----------11-\9----------|
12----------11------------------|-------------------12-\7~~~|
--------------------------------|---------------------------|


E   E   E   E   E   E   E   E    E   E   E   E   E   E  E   E
--------------------------------|-------------------------------|
----12-/14------15-\14----------|-------------------------------|
------------------------16-\14--|----16-\14------13-----11-/13--|
--------------------------------|12----------11------9----------|
12----------11------------------|-------------------------------|
--------------------------------|-------------------------------|


E   E   E   E   E   E   E   E    E   E   E   E  E  E   Q
--------------------------------|----------------------------|
----12-/14------15-\14----------|----------------------------|
------------------------16-\14--|----16-\14---------13--14---|
--------------------------------|12----------9-\11-----------|
12----------11------------------|----------------------------|
--------------------------------|----------------------------|


E   E   E   E   E   E   E   E    E   E   E   E   E   E  E   E
----------------16-\12----------|-------------------------------|
----12-/14----------------------|-------------------------------|
------------------------11-/13--|----16-\14------13-----11-\13--|
--------------------------------|12----------11------9----------|
12----------14------------------|-------------------------------|
--------------------------------|-------------------------------|


E   E   E   E   E   E   E   Q     E   E   E   E  E   Q
----------------19-\17-----------|-----------------------|
----12-/17--------------17-\14~--|-----------------------|
---------------------------------|----16-----------------|
---------------------------------|12------11-\9----------|
12----------16-------------------|---------------12-\7---|
---------------------------------|-----------------------|


E   E   E   E   E   E   E   E    E   E   E   E   E   E  E   E
----------------16-\12----------|-------------------------------|
----12-/14----------------------|-------------------------------|
------------------------11-/13--|----16-\14------13-----11-\13--|
--------------------------------|12----------11------9----------|
12----------14------------------|-------------------------------|
--------------------------------|-------------------------------|


E   E   E   E   E   E   E   Q     E   E   E   E  E   Q
----------------19-\17-----------|-----------------------|
----12-/17--------------17-\14~--|-----------------------|
---------------------------------|----16---------13--14--|
---------------------------------|12------9-/11----------|
12----------16-------------------|-----------------------|
---------------------------------|-----------------------|


E   E   E   E   E   E   E  E  E   E  E   E  S E   S E   S E  E    S W  W  W      E
------------------------------------------------------------------------------------|
----12-/14------15-\14-----9-/10-----10-\9----7-/(6)6-/(5)5-(5)/-(3)--(3)-----------|
------------------------------------------------------------------------------------|
------------------------------------------------------------------------------------|
12----------11----------9---------7---------6(6)/-5(5)/-4---(4)/-(2)--(2)-----------|
--------------------------------------------------------------------0~~~~(0)~~~~(0)-|


 W     E    W+E  W+E  W     W
^0-----------------------------~~~~||
^2----t14--(14)------------(14)~~~~||
^2---------t14--(14)-------(14)~~~~||
^2---------------------------------||
^0--------------t12--(12)--(12)~~~~||
^0---------------------------------||

END!!!
comments
print report bad tab
6 comments total. Showing first comments.
0 reply
C.C. Deville wrote on October 24 2008, 11:46 pm

this is amazing!!!! five stars i would give more if i could, ive been looking for a complete tab for this song for ages, not only is it complete but its very accurate too

0 reply
shaq147 wrote on October 25 2008, 01:39 pm

Thanx bro!
Im glad I helped! Appreciate your comment tyvm :)

0 reply
Tom090586 wrote on December 28 2008, 11:05 am

Great Job dude

I want to post or [tab]
guest
You may want to rate the tab now too:
select rating
Please do not post tabs as comments. Select "correction" instead!