Oops, an error
Loading. Please wait.

Wedding In A Dream Tab

5,906 views 9 this week
no commentswrite comment
1 2 3 4 5
accurate
x 5
Autoscroll
+/-
esc
set tempo
stop
Contributor
Difficulty
advanced
Hey! There's an official Ultimate Guitar app which is ideal
for learning songs when you're away from computer. Get the app
WARNING: You are trying to view
                                    content from Ultimate-Guitar.com
                                    in an unauthorized application,
                                    which is prohibited.

                                    Please use an official Ultimate
                                    Guitar Tabs application for iPhone,
                                    iPad or Android to access legitimate
                                    chords, guitar, bass, and drum tabs
                                    from Ultimate-Guitar.com database.

                                    Type "ultimate guitar tabs" in Apple
                                    App Store's or Android Market's
                                    search to find the application.
Author/Artist: JerryC

tanscribed by: Brendan Haas
----------|--11v-----|----13v----|----10------------------------------------|
---8v-----|----------|-----------|------------------------------------------|
----------|----------|-----------|------------------------------------------|
----------|----------|-----------|------------------------------------------|
----------|----------|-----------|------------------------------------------|
----------|----------|-----------|------------------------------------------|


------------|---------------------------|-------------|------------|--------|
------------|---------------------------|-------------|------------|--------|
--7v--------|------------7--5--3--2-----|--7-------7/5|7-------7/5\|7-------|
--7v--------|---------------------------|------5/8----|---5/8------|--------|
--5v--------|---------------------------|-------------|------------|--------|
------------|---------------------------|-------------|------------|--------|


-------------------------|---------------|------------|---------------------|
-------------------------|---------------|----8----8--|---------------------|
-------8-7-8---------8-7-|----8--8-7-8-9-|-10---10----|-----7---------------|
-----8-------------8-----|---------------|------------|---------------------|
--10------------10-------|---------------|------------|---------------------|
-------------------------|---------------|------------|---------------------|


-------------------|----------------------------------|-----------------|---|
--15----------15/13|15-----------15/13\15--------16-15|16---------16-15-|---|
-------12-15-------|----------15--------------15------|--------15-------|---|
-------------------|-------17--------------17---------|-----17----------|---|
-------------------|----------------------------------|-----------------|---|
-------------------|----------------------------------|-----------------|---|


--------------------|---------------|----/18----------|---------------17-17-|
--16---16-15-16-17--|--18--18b--15--|---------15-15-16|16----------------|--|
--------------------|---------------|-----------------|---------17-17----|--|
--------------------|---------------|-----------------|------------------|--|
--------------------|---------------|-----------------|------------------|--|
--------------------|---------------|-----------------|------------------|--|


---------|-------------------------15-13|-15\---------------------|---------|
-------15|15------15-13-----------------|-----------11-11-11-13---|---------|
-17-17---|--------------15--15----------|-------------------------|---------|
---------|------------------------------|-------------------------|---------|
---------|------------------------------|-------------------------|---------|
---------|------------------------------|-------------------------|---------|


---------------|---14----------17-14-17-20-20b--20|-18---18-18-20-|---------|
-13----13b-13b-|------15-13-14--------------------|---------------|---------|
----14---------|----------------------------------|---------------|---------|
---------------|----------------------------------|---------------|---------|
---------------|----------------------------------|---------------|---------|
---------------|----------------------------------|---------------|---------|


-20--18-17-15|--13--13-15-13|------|-18--18-18-20-|-20--18-17-15|-----------|
-------------|--------------|--13b-|--------------|-------------|-----------|
-------------|--------------|------|--------------|-------------|-----------|
-------------|--------------|------|--------------|-------------|-----------|
-------------|--------------|------|--------------|-------------|-----------|
-------------|--------------|------|--------------|-------------|-----------|


--13--13-15-13|--13b-----------|-18----------------------------18------------|
--------------|----------------|----20----------------------------20---------|
--------------|----------------|-------19----------------------------19------|
--------------|----------------|----------20----------17-20-17----------20---|
--------------|-----------17\0-|-------------17----17---------------------17-|
--------------|----------------|----------------15---------------------------|


------|----------|-------------|------------|------------|-----------|------|
------|----------|-------------|------------|------------|-----------|------|
------|-7-----7\5|7---------7\5|-7-------8-7|-8------8-7-|-8--8-7-8-9|------|
------|---5/8----|-----5/8-----|-----5/8----|----5/8-----|-----------|------|
------|----------|-------------|------------|------------|-----------|------|
-18-15|----------|-------------|------------|------------|-----------|------|


-----------------|----------------------10------------------|----------------|
---------8----8\-|--3----/10-8-10-11-10----10-11-13-12-14-11|--13------------|
--10--10---10----|------------------------------------------|-------15-19-17-|
-----------------|------------------------------------------|----17----------|
-----------------|------------------------------------------|----------------|
-----------------|------------------------------------------|----------------|


------------|----------------|-----------------|------------------|--------|
-------15/13|15---------16-15|16----------16-15|--16--116-15-16-17|-18-18b-|
----15------|--------15------|---------15------|------------------|--------|
-17---------|-----17---------|------17---------|------------------|--------|
------------|----------------|-----------------|------------------|--------|
------------|----------------|-----------------|------------------|--------|


------------------14-------17-17---|--18/----------|------------17-|--------|
--15-----------10----16-15-------15|-------15-15-16|--16-----------|--------|
------------11---------------------|---------------|------17-17----|--------|
---------12------------------------|---------------|---------------|--------|
-----------------------------------|---------------|---------------|--------|
-----------------------------------|---------------|---------------|--------|


--17-------18-17-18-17-18-17-18-17-18-17-18-17------------|-----------------|
--------------------------------------------------------13|/15--13-15-13-11-|
------------------------------------------------17--15----|-----------------|
----------------------------------------------------------|-----------------|
----------------------------------------------------------|-----------------|
----------------------------------------------------------|-----------------|


-----15--13|---15\-----------|--------|--------------------|--18--18-18-20--|
-11--------|----------13b-11-|--13-13b|--------------------|----------------|
-----------|-----------------|--------|--------------------|----------------|
-----------|-----------------|--------|--------------------|----------------|
-----------|-----------------|--------|--------------------|----------------|
-----------|-----------------|--------|--------------------|----------------|


-20--18-17-15|--13--13-15-13-|-----|--18--18-18-20-|--20--18-17-15-|--------|
-------------|---------------|-13b-|---------------|---------------|--------|
-------------|---------------|-----|---------------|---------------|--------|
-------------|---------------|-----|---------------|---------------|--------|
-------------|---------------|-----|---------------|---------------|--------|
-------------|---------------|-----|---------------|---------------|--------|
                          Sweeping shit dont wanna tab

-13--13-15-13|--13b|----------------------------------------------------|---|
-------------|-----|----------------------------------------------------|---|
-------------|-----|----------------------------------------------------|---|
-------------|-----|----------------------------------------------------|---|
-------------|-----|----------------------------------------------------|---|
-------------|-----|----------------------------------------------------|---|


-------|------|----|---------|-----|--------------|---------|----------------|
--18b--|------|----|---------|-----|--------------|---------|11b--11-10-1110-|
-------|--7---|--8-|----10-5-|--6b-|------11-12-14|--14b-12-|----------------|
-------|------|----|---------|-----|--------------|---------|----------------|
-------|------|----|---------|-----|--------------|---------|----------------|
-------|------|----|---------|-----|--------------|---------|----------------|


-----|-----------|-----10-|-11------|-----13----|-------|-14-15-17-|-17b-15-|
-12b-|--------10-|--11----|---------|--------13-|--15b--|----------|--------|
-----|--11-12----|--------|---------|-----------|-------|----------|--------|
-----|-----------|--------|---------|-----------|-------|----------|--------|
-----|-----------|--------|---------|-----------|-------|----------|--------|
-----|-----------|--------|---------|-----------|-------|----------|--------|


--21b-------|---------------------------------------13----------|-17b------|
---------20-|------------------------------13-15-16----16-15-13-|-----15---|
------------|--------------------12-14-15-----------------------|----------|
------------|-----------12-14-15--------------------------------|----------|
------------|--12-13-15-----------------------------------------|----------|
------------|---------------------------------------------------|----------|


--------18b-|-17--20-17-20----20-17-20----20---------|-------17-------------|
--16--------|--------------18----------18----18-16-15|-16-18----18-16-15----|
------------|----------------------------------------|-------------------17-|
------------|----------------------------------------|----------------------|
------------|----------------------------------------|----------------------|
------------|----------------------------------------|----------------------|


-------------------------------|--------------------------------------------|
--16---------------------------|--------------------------------------------|
-----15-17-15------------------|--------------------------------------------|
--------------17-15-17-15-13-12|--------------------------------------------|
-------------------------------|--------------------------------------------|
-------------------------------|--------------------------------------------|


--------------10-14-10-------------------10-14-10------|--------------------|
-----------10----------10-------------10----------10-11|--------------------|
--------11----------------11-------11------------------|--------------------|
-----12----------------------12-12---------------------|--------------------|
--13---------------------------------------------------|--------------------|
-------------------------------------------------------|--------------------|


--14-15-14-15-10-15----15----15----15----15----15-|--------------|----------|
--------------------13----11----10----------10----|-13b-13pb11-13|----------|
--------------------------------------12----------|--------------|----------|
--------------------------------------------------|--------------|----------|
--------------------------------------------------|--------------|----------|
--------------------------------------------------|--------------|----------|


----------1-12-13-12-10---------------------------------------|---|--|--|--|
-10-11-13---------------13-11-10------------------------------|---|--|--|--|
---------------------------------12-11-10---------------------|---|--|--|--|
------------------------------------------12-11-10------------|---|--|--|--|
---------------------------------------------------13-11-10-9-|---|--|--|--|
--------------------------------------------------------------|---|--|--|--|


-----------15b--15-14-14-|--15-17-18---|--18b----16-17-16-17-16-17-16-17-16-|
----13--16---------------|-----------15|------------------------------------|
-14----------------------|-------------|------------------------------------|
-------------------------|-------------|------------------------------------|
-------------------------|-------------|------------------------------------|
-------------------------|-------------|------------------------------------|


-17-16-17|-----------17--17--------------|---------------------15-13|-------|
---------|-16----------|-------------13/-|15---13-15-13-11--11------|-------|
---------|-----17-17---|-------17-15-----|--------------------------|-------|
---------|-------------|-----------------|--------------------------|-------|
---------|-------------|-----------------|--------------------------|-------|
---------|-------------|-----------------|--------------------------|-------|


--15--------------|--------|------------|-18--18-18-20|--20--18-17-15-|------|
--------13b---11--|-13-13b-|------------|-------------|---------------|------|
------------------|--------|------------|-------------|---------------|------|
------------------|--------|------------|-------------|---------------|------|
------------------|--------|------------|-------------|---------------|------|
------------------|--------|------------|-------------|---------------|------|


--13--13-15-13-|----------|---18--18-18-20|--20--18-17-15-|-13--13-15-13|---|
---------------|-13b------|---------------|---------------|-------------|---|
---------------|----------|---------------|---------------|-------------|---|
---------------|----------|---------------|---------------|-------------|---|
---------------|----------|---------------|---------------|-------------|---|
---------------|----------|---------------|---------------|-------------|---|


------------|--18-----------------------------18----------|-----------------|
--13b-------|-----10----------------20-----------20-------|-----------------|
------------|--------19----------19----19-----------19----|-----------------|
------------|-----------20-17-20----------20-----------20-|-----------------|
------------|---------------------------------------------|-----------------|
------------|---------------------------------------------|-----------------|


-20------------------18--17-18-17|----------------------17----15-13-15---|--|
----16---------------------------|-18----------------13----18----------18|--|
-------17-20----20---------------|----17-14-------14---------------------|--|
-------------17------------------|----------17-15------------------------|--|
---------------------------------|---------------------------------------|--|
---------------------------------|---------------------------------------|--|


--------------------------|--18-----------------------------18---------|----|
--15--18-15-15------------|-----20----------------20-----------20------|----|
---------------17-15------|--------19----------19----19-----------19---|----|
---------------------15---|-----------20-17-20----------20-----------20|----|
------------------------13|--------------------------------------------|----|
--------------------------|--------------------------------------------|----|


--20----------------------18-----17--18--17|--------------------------------|
------16-----------------------------------|--------------------------------|
----------17--20------20-------------------|--------------------------------|
------------------17-----------------------|--------------------------------|
-------------------------------------------|--------------------------------|
-------------------------------------------|--------------------------------|


------------------------------17-----15---13--15-----|----------------------|
--18-----------------------13-----18--------------18-|----------------------|
------17---14----------14----------------------------|-----18b--------------|
---------------17--15--------------------------------|----------------------|
-----------------------------------------------------|----------------------|
-----------------------------------------------------|----------------------|


--18-----------------------18-------18----------------|-18------------------|
-----20-----------------------20-------20-------------|----20---------------|
--------19-----------------------19-------19----------|-------19------------|
-----------20----------17--------------------20-17----|----------20---------|
--------------17----17-----------------------------17-|-------------17------|
-----------------15-----------------------------------|----------------15---|


--------18------------18--------18-------18------------|----|----|----------|
-----------20------------20--------20-------20---------|-18b|----|----------|
-------------19-------------19--------19-------19------|----|----|----------|
----17---------20-17------------------------------20-17|----|----|----------|
-17----------------------------------------------------|----|----|----------|
-------------------------------------------------------|----|----|----------|


--------------|-------------------------|--------------|------------|-------|
--18--16-15-16|--15--13--11--11-13-11-10|-11-10-8--6-8-|------------|-------|
--------------|-------------------------|--------------|-7-5--3-5-3-|-------|
--------------|-------------------------|--------------|------------|-------|
--------------|-------------------------|--------------|------------|-------|
--------------|-------------------------|--------------|------------|-------|


----------|-----------------------|-|---------------------------------------|
----------|-----------------------|-|---------------------------------------|
--2--3-2--|-----------------------|-|---------------------------------------|
---------3|--5v-------------------|-|---------------------------------------|
----------|-----------------------|-|---------------------------------------|
----------|-----------------------|-|---------------------------------------|
                                                                              JERRYC ROCKS!!!
comments
print report bad tab
I want to post or [tab]
guest
You may want to rate the tab now too:
select rating
Please do not post tabs as comments. Select "correction" instead!