Oops, an error
Loading. Please wait.

Wedding In The Dream Tab

ver2
ver2

Intro

Whole song

Interactive

More versions @911Tabs.com
2,211 views 1 this week
no commentswrite comment
1 2 3 4 5
excellent!
x 1
Autoscroll
+/-
esc
set tempo
stop
Contributor
Difficulty
advanced
Hey! There's an official Ultimate Guitar app which is ideal
for learning songs when you're away from computer. Get the app
WARNING: You are trying to view
                                    content from Ultimate-Guitar.com
                                    in an unauthorized application,
                                    which is prohibited.

                                    Please use an official Ultimate
                                    Guitar Tabs application for iPhone,
                                    iPad or Android to access legitimate
                                    chords, guitar, bass, and drum tabs
                                    from Ultimate-Guitar.com database.

                                    Type "ultimate guitar tabs" in Apple
                                    App Store's or Android Market's
                                    search to find the application.
                            Wedding In The Dreams 

Tabbed By :- bhishmyadav@gmail.com                              

Pls Rate And Comment
                                                                         Jerry C
Lead Guitar


             
E||-------------------|-------------------|-------------------|
B||-------------------|-------------------|-------------------|
G||-------------------|-------------------|-------------------|
D||-------------------|-------------------|-------------------|
A||-------------------|-------------------|-------------------|
E||-------------------|-------------------|-------------------|


            
-------------------|--------------------|-------------------|
-------------------|--8~----------------|--L----------------|
-------------------|--------------------|-------------------|
-------------------|--------------------|-------------------|
-------------------|--------------------|-------------------|
-------------------|--------------------|-------------------|

          
--11~----------------|--L--------13--------|---L----------------|
---------------------|---------------------|--------------------|
---------------------|---------------------|--------------------|
---------------------|---------------------|--------------------|
---------------------|---------------------|--------------------|
---------------------|---------------------|--------------------|

               
--10----------------|-------------------|-------------------|
--------------------|-------------------|-------------------|
--------------------|--7----------------|--L----------------|
--------------------|--7----------------|--L----------------|
--------------------|--5----------------|--L----------------|
--------------------|-------------------|-------------------|

  
-------------------|--------------------------|---------------------------|
-------------------|--------------------------|---------------------------|
--L----------------|--7~----5~----3~----2~----|--7~---------------7s--5s--|
--L----------------|--------------------------|------------5S--8----------|
--L----------------|--------------------------|---------------------------|
-------------------|--------------------------|---------------------------|


---------------------------|-------------------------|-------------------------|
---------------------------|-------------------------|-------------------------|
--7~---------------7s--5s--|--7~---------------8--7--|--8~---------------8--7--|
------------5S--8----------|----------------8--------|----------------8--------|
---------------------------|------------10-----------|------------10-----------|
---------------------------|-------------------------|-------------------------|
                 
--------------------|---------------------------|--------------------|
--------------------|-----------------8------8--|--------------------|
--8~----8--7--8--9--|--10~--------10-----10-----|--7~----------------|
--------------------|---------------------------|--------------------|
--------------------|---------------------------|--------------------|
--------------------|---------------------------|--------------------|

 
-------------------------------|-------------------------------|
--15~----------------15s--13s--|--15~----------------15s--13s--|
-------------12--15------------|-----------------15------------|
-------------------------------|-------------17----------------|
-------------------------------|-------------------------------|
-------------------------------|-------------------------------|


  
-----------------------------|-----------------------------|
--15~----------------16--15--|--16~----------------16--15--|
-----------------15----------|-----------------15----------|
-------------17--------------|-------------17--------------|
-----------------------------|-----------------------------|
-----------------------------|-----------------------------|

                  
-------------------------|--------------------------|---------------------|
--16~----16--15--16--17--|--18~--------18brb--------|--15~----------------|
-------------------------|--------------------------|---------------------|
-------------------------|--------------------------|---------------------|
-------------------------|--------------------------|---------------------|
-------------------------|--------------------------|---------------------|


  
--/18--------L--------------|-----------------------17--|
----------------15--15--16--|--16--------L--------------|
----------------------------|---------------17--17------|
----------------------------|---------------------------|
----------------------------|---------------------------|
----------------------------|---------------------------|


     
--17--------L--------------|------------------------15--13--|
-----------------------15--|--15------15-13-----------------|
---------------17--17------|----------------15--15----------|
---------------------------|--------------------------------|
---------------------------|--------------------------------|
---------------------------|--------------------------------|


    
--15~--------L----------------|----------------------------|
----------------11-11-11--13--|--13----------13b----13b----|
------------------------------|----------14----------------|
------------------------------|----------------------------|
------------------------------|----------------------------|
------------------------------|----------------------------|

  
--14----------17-14-17-20-20b-L----L-20--|--18------18--18--20--|
-----15-13-15----------------------------|----------------------|
-----------------------------------------|----------------------|
-----------------------------------------|----------------------|
-----------------------------------------|----------------------|
-----------------------------------------|----------------------|


           
--20------18--17--15--|--13------13--15--13--|------------------|
----------------------|----------------------|--13b~------------|
----------------------|----------------------|------------------|
----------------------|----------------------|------------------|
----------------------|----------------------|------------------|
----------------------|----------------------|------------------|
 
--18------18--18--20--|--20------18--17--15--|--13------13--15--13--|
----------------------|----------------------|----------------------|
----------------------|----------------------|----------------------|
----------------------|----------------------|----------------------|
----------------------|----------------------|----------------------|
----------------------|----------------------|----------------------|

   
--13b~---------------------|
---------------------------|
---------------------------|
------------------17\--0/--|
---------------------------|
---------------------------|


      
--18----------------------------18----------------------|
-----20----------------------------20-------------------|
--------19----------------------------19----------------|
-----------20----------17-20-17----------20-------------|
--------------17----17----------------------17----------|
-----------------15----------------------------18-15----|


-----------------------------|-----------------------------|
-----------------------------|-----------------------------|
--7~------L\---------7s--5s--|--7~------L\---------7s--5s--|
--------------5S--8----------|--------------5S--8----------|
-----------------------------|-----------------------------|
-----------------------------|-----------------------------|

 
--------------------------|---------------------------|--------------------|
--------------------------|---------------------------|--------------------|
--7------L\---------8--7--|--<>8~---------------8--7--|--8~----8--7--8--9--|
-------------5S--8--------|--------------5S--8--------|--------------------|
--------------------------|---------------------------|--------------------|
--------------------------|---------------------------|--------------------|

----------------------------|--------------------------10-------------------|
-----------------8------8\--|--3--------/10-8-10-11-10----10-11-13-------11-|
--10~--------10-----10------|--------------------------------------12-14----|
----------------------------|-----------------------------------------------|
----------------------------|-----------------------------------------------|
----------------------------|-----------------------------------------------|


-------------------------------|------------------------------|
--13b~-------------------------|--------------------15s--13s--|
------------------15--19--17b--|---L------------15------------|
--------------17---------------|------------17----------------|
-------------------------------|------------------------------|
-------------------------------|------------------------------|


-----------------------------|-----------------------------|
--15~----------------16--15--|--16~----------------16--15--|
-----------------15----------|-----------------15----------|
-------------17--------------|-------------17--------------|
-----------------------------|-----------------------------|
-----------------------------|-----------------------------|

          
-------------------------|--------------------------|
--16~----16--15--16--17--|--18~--------18brb--------|
-------------------------|--------------------------|
-------------------------|--------------------------|
-------------------------|--------------------------|
-------------------------|--------------------------|


--------------------14--------17-17-----|--18--------L--------------|
--15~------------10-----16-15--------15-|---------------15--15--16--|
--------------11------------------------|---------------------------|
-----------12---------------------------|---------------------------|
----------------------------------------|---------------------------|
----------------------------------------|---------------------------|

E   
-----------------------17--|
--16--------L--------------|
---------------17--17------|
---------------------------|
---------------------------|
---------------------------|

  
--17--18-17-18-17-18-17-18-17-18-17-18-17--------------|
--------------------------------------------------13s--|
------------------------------------------17--15-------|
-------------------------------------------------------|
-------------------------------------------------------|
-------------------------------------------------------|


---------------------------15--13--|--15~--------L--------------|
--15------13-15-13-11--11----------|----------------13b----L-11-|
-----------------------------------|----------------------------|
-----------------------------------|----------------------------|
-----------------------------------|----------------------------|
-----------------------------------|----------------------------|


-------------------------|-------------------|--18------18--18--20--|
--13------13b~------L----|-------------------|----------------------|
-------------------------|-------------------|----------------------|
-------------------------|-------------------|----------------------|
-------------------------|-------------------|----------------------|
-------------------------|-------------------|----------------------|

          
--20------18--17--15--|--13------13--15--13--|------------------|
----------------------|----------------------|--13b~------------|
----------------------|----------------------|------------------|
----------------------|----------------------|------------------|
----------------------|----------------------|------------------|
----------------------|----------------------|------------------|


--18------18--18--20--|--20------18--17--15--|--13------13--15--13--|
----------------------|----------------------|----------------------|
----------------------|----------------------|----------------------|
----------------------|----------------------|----------------------|
----------------------|----------------------|----------------------|
----------------------|----------------------|----------------------|


--13b~----------------|--18----------------------------18----------|
----------------------|-----20----------------20----------20-------|
----------------------|--------19----------19----19----------19----|
----------------------|-----------20-17-20----------20----------20-|
----------------------|--------------------------------------------|
----------------------|--------------------------------------------|

  
--20----------------18--17-18-17--|-----------------------17----15-13-15----|
-----16---------------------------|--18----------------13----18----------18-|
--------17-20----20---------------|-----17-14-------14----------------------|
--------------17------------------|-----------17-15-------------------------|
----------------------------------|-----------------------------------------|
----------------------------------|-----------------------------------------|


-------------------------------|--18----------------------------18----------|
--15--18-15-15-----------------|-----20----------------20----------20-------|
---------------17-15-----------|--------19----------19----19----------19----|
---------------------15--------|-----------20-17-20----------20----------20-|
------------------------13~----|--------------------------------------------|
-------------------------------|--------------------------------------------|


--20----------------18--17-18-17--|-----------------------17----15-13-15----|
-----16---------------------------|--18----------------13----18----------18-|
--------17-20----20---------------|-----17-14-------14----------------------|
--------------17------------------|-----------17-15-------------------------|
----------------------------------|-----------------------------------------|
----------------------------------|-----------------------------------------|


---------18----------------------------18----------------|
--18b-------20----------------------------20-------------|
---------------19----------------------------19----------|
------------------20----------17-20-17----------20-17----|
---------------------17----17-------------------------17-|
------------------------15-------------------------------|

                  
-------------------------|--------------------|--------------------|
--18b~---------L\--------|--------------------|--------------------|
-------------------------|-----------7--------|--8~----------------|
-------------------------|--------------------|--------------------|
-------------------------|--------------------|--------------------|
-------------------------|--------------------|--------------------|

  
-----------------------|--------------------|-------------------------|
-----------------------|--------------------|-------------------------|
--L---------10----5----|--6b----------------|--L--------11---12---14--|
-----------------------|--------------------|-------------------------|
-----------------------|--------------------|-------------------------|
-----------------------|--------------------|-------------------------|

     
------------------------|--------------------------------|
------------------------|--11b------11--10--11-10--------|
--14b--------12~--------|-------------------------12b----|
------------------------|--------------------------------|
------------------------|--------------------------------|
------------------------|--------------------------------|

                 
------------------------------|------------10--------|--11~----------------|
------------------------10----|--11------------------|---------------------|
--L------L--11----12----------|----------------------|---------------------|
------------------------------|----------------------|---------------------|
------------------------------|----------------------|---------------------|
------------------------------|----------------------|---------------------|
  
--L--------13----------|---------------------|-----------14---15---17--|
-----------------13----|--15b----------------|--L----------------------|
-----------------------|---------------------|-------------------------|
-----------------------|---------------------|-------------------------|
-----------------------|---------------------|-------------------------|
-----------------------|---------------------|-------------------------|

        
--17b--------15--------|--21b-------------------|
-----------------------|-------------20~--------|
-----------------------|------------------------|
-----------------------|------------------------|
-----------------------|------------------------|
-----------------------|------------------------|
  
--------------------------------------13----------|--17b~------------------|
-----------------------------13-15-16----16-15-13-|------------------15----|
--------------------12-14-15----------------------|------------------------|
-----------12-14-15-------------------------------|------------------------|
--12-13-15----------------------------------------|------------------------|
--------------------------------------------------|------------------------|


----------------18b------|--17----20-17-20----20-17-20----20----------|
--16~--------L-----------|-----------------18----------18----18-16-15-|
-------------------------|--------------------------------------------|
-------------------------|--------------------------------------------|
-------------------------|--------------------------------------------|
-------------------------|--------------------------------------------|

 
--------17----------------------------------------|
--16-18----18-16-15----16-------------------------|
--------------------17----15-17-15----------------|
-----------------------------------17-15-17-15-13-|
--------------------------------------------------|
--------------------------------------------------|


--------------------10-14-10-------------------10-14-10-------|
-----------------10----------10-------------10----------10----|
--------------11----------------11-------11----------------11-|
--12-------12----------------------12-12----------------------|
--------13----------------------------------------------------|
--------------------------------------------------------------|


--14-15-14-15-10-15----15----15----15----15----15-|
--------------------13----11----10----------10----|
--------------------------------------12----------|
--------------------------------------------------|
--------------------------------------------------|
--------------------------------------------------|

      
------------------------------|
--13b---13b---L-11-13~--------|
------------------------------|
------------------------------|
------------------------------|
------------------------------|
  
-----------10-12-13-12-10------------------------------------------|
--10-11-13----------------13-11-10---------------------------------|
-----------------------------------12-11-10------------------------|
--------------------------------------------12-11-10---------------|
-----------------------------------------------------13-11-10-9-L--|
-------------------------------------------------------------------|

            
-------------------|-------------------|-------------------|-------------------|
-------------------|-------------------|-------------------|-------------------|
-------------------|-------------------|-------------------|-------------------|
-------------------|-------------------|-------------------|-------------------|
-------------------|-------------------|-------------------|-------------------|
-------------------|-------------------|-------------------|-------------------|

        
----------------15b----15-14-14--|--15---17---18-------------|
-------13---16-------------------|----------------15~--------|
--14-----------------------------|---------------------------|
---------------------------------|---------------------------|
---------------------------------|---------------------------|
---------------------------------|---------------------------|

 
--18b--------16-17-16-17-16-17-16-17-16-17-16-17-|
-------------------------------------------------|
-------------------------------------------------|
-------------------------------------------------|
-------------------------------------------------|
-------------------------------------------------|

     
--16-17-18-17-18-17-18-17-18-17-18-17-18-17-18-17-18-17------|
-------------------------------------------------------------|
-------------------------------------------------------------|
-------------------------------------------------------------|
-------------------------------------------------------------|
-------------------------------------------------------------|

   
----------------------------------|--18--------L--------------|
--x-x-x-x-x-x-x-x-x-x-x-x-x-x-x-x-|---------------15--15--16--|
--x-x-x-x-x-x-x-x-x-x-x-x-x-x-x-x-|---------------------------|
--x-x-x-x-x-x-x-x-x-x-x-x-x-x-x-x-|---------------------------|
--x-x-x-x-x-x-x-x-x-x-x-x-x-x-x-x-|---------------------------|
----------------------------------|---------------------------|

 
-----------------------17--|--17----L-------------------|
--16--------L--------------|-----------------------13s--|
---------------17--17------|---------------17--15-------|
---------------------------|----------------------------|
---------------------------|----------------------------|
---------------------------|----------------------------|


---------------------------15--13--|--15~--------L--------------|
--15------13-15-13-11--11----------|----------------13b----L-11-|
-----------------------------------|----------------------------|
-----------------------------------|----------------------------|
-----------------------------------|----------------------------|
-----------------------------------|----------------------------|

  
-------------------------|-------------------|--18------18--18--20--|
--13------13b~------L----|-------------------|----------------------|
-------------------------|-------------------|----------------------|
-------------------------|-------------------|----------------------|
-------------------------|-------------------|----------------------|
-------------------------|-------------------|----------------------|

             
--20------18--17--15--|--13------13--15--13--|------------------|
----------------------|----------------------|--13b~------------|
----------------------|----------------------|------------------|
----------------------|----------------------|------------------|
----------------------|----------------------|------------------|
----------------------|----------------------|------------------|


   Q.      E   E   E      Q.      E   E   E      Q.      E   E   E   
--18------18--18--20--|--20------18--17--15--|--13------13--15--13--|
----------------------|----------------------|----------------------|
----------------------|----------------------|----------------------|
----------------------|----------------------|----------------------|
----------------------|----------------------|----------------------|
----------------------|----------------------|----------------------|

  
--13b~----------------|--18----------------------------18----------|
----------------------|-----20----------------20----------20-------|
----------------------|--------19----------19----19----------19----|
----------------------|-----------20-17-20----------20----------20-|
----------------------|--------------------------------------------|
----------------------|--------------------------------------------|

 
--20----------------18--17-18-17--|-----------------------17----15-13-15----|
-----16---------------------------|--18----------------13----18----------18-|
--------17-20----20---------------|-----17-14-------14----------------------|
--------------17------------------|-----------17-15-------------------------|
----------------------------------|-----------------------------------------|
----------------------------------|-----------------------------------------|


                                                
-------------------------------|--18----------------------------18----------|
--15--18-15-15-----------------|-----20----------------20----------20-------|
---------------17-15-----------|--------19----------19----19----------19----|
---------------------15--------|-----------20-17-20----------20----------20-|
------------------------13~----|--------------------------------------------|
-------------------------------|--------------------------------------------|


                                                     
--20----------------18--17-18-17--|-----------------------17----15-13-15----|
-----16---------------------------|--18----------------13----18----------18-|
--------17-20----20---------------|-----17-14-------14----------------------|
--------------17------------------|-----------17-15-------------------------|
----------------------------------|-----------------------------------------|
----------------------------------|-----------------------------------------|

 
---------18----------------------18-------18----------------|
--18b-------20----------------------20-------20-------------|
---------------19----------------------19-------19----------|
------------------20----------17-------------------20-17----|
---------------------17----17----------------------------17-|
------------------------15----------------------------------|

 
--18----------------------18-------18-------------18-------18-------------|
-----20----------------------20-------20-------------20-------20----------|
--------19----------------------19-------19-------------19-------19-------|
-----------20----------17-------------------20-17-------------------20-17-|
--------------17----17----------------------------------------------------|
-----------------15-------------------------------------------------------|

  
------------------|---------------|----------------------|
--18b~------------|--L------------|--18------16--15--16--|
------------------|---------------|----------------------|
------------------|---------------|----------------------|
------------------|---------------|----------------------|
------------------|---------------|----------------------|


-----------------------------|---------------------|-------------------|
--15----13--11--11-13-11-10--|--11--10--8----6--8--|-------------------|
-----------------------------|---------------------|--7--5----3--5--3--|
-----------------------------|---------------------|-------------------|
-----------------------------|---------------------|-------------------|
-----------------------------|---------------------|-------------------|


                                
------------------|----------------|---------------|---------------||
------------------|----------------|---------------|---------------||
--2------3--2-----|----------------|---------------|---------------||
---------------3--|--5~------------|--L------------|---------------||
------------------|----------------|---------------|---------------||
------------------|----------------|---------------|---------------||





Tablature Legend
----------------
L - tied note
x - dead note
g - grace note
(n) - ghost note
> - accentuded note
NH - natural harmonic
AH - artificial harmonic
TH - tapped harmonic
SH - semi harmonic
PH - pitch harmonic
h - hammer on
p - pull off
b - bend
br - bendRelease
pb - preBend
pbr - preBendRelease
brb - bendReleaseBend
\n/ - tremolo bar dip
\n - tremolo bar dive
-/n - tremolo bar Release up
/n\ - tremolo bar inverted dip
/n - tremolo bar return
-\n - tremolo bar Release down
S - shift slide
s - legato slide
/ -  slide into from below or out of upwards
\ -  slide into from above or out of downwards
~ - vibrato
W - wide vibrato
tr - trill
TP - tremolo picking
T - tapping
S - slap
P - pop
< - fade in
^ - brush up
v - brush down
comments
We did not receive enough feedback on this tab! Please rate:
print report bad tab
1 2 3 4 5
I want to post or [tab]
guest
You may want to rate the tab now too:
select rating
Please do not post tabs as comments. Select "correction" instead!