Oops, an error
Loading. Please wait.

Whose Autumn Tab

ver2
ver2

Intro

Whole song

Interactive

More versions @911Tabs.com
1,480 views 6 this week
no commentswrite comment
1 2 3 4 5
please rate
Autoscroll
+/-
esc
set tempo
stop
Contributor
Difficulty
intermediate
Hey! There's an official Ultimate Guitar app which is ideal
for learning songs when you're away from computer. Get the app
WARNING: You are trying to view
                                    content from Ultimate-Guitar.com
                                    in an unauthorized application,
                                    which is prohibited.

                                    Please use an official Ultimate
                                    Guitar Tabs application for iPhone,
                                    iPad or Android to access legitimate
                                    chords, guitar, bass, and drum tabs
                                    from Ultimate-Guitar.com database.

                                    Type "ultimate guitar tabs" in Apple
                                    App Store's or Android Market's
                                    search to find the application.
nothing to credit to me, this all goes to the guitarpro version of this song tabbed by 
 you can check the guitar pro version here 
http://www.ultimate-guitar.com/tabs/j/jerryc/whose_autumn_guitar_pro.htm
backing track available at http://www.guitarbackingtrack.com/play/jerryc/whose_autumn.htm


Mid
                                PM PM
     E.   E  Q     Q     E.     S  S  S  E  E.    E   Q      E
E||--------------------------|-----------------------------------|
B||----------8---------------|--------------8s---12s--8~---------|
G||------/9-------\7~----L---|--------7s-9-------------------7p--|
D||--5-----------------------|--5--5-----------------------------|
A||--------------------------|-----------------------------------|
E||--------------------------|-----------------------------------|


  E  S  S  S  S S  S H            S. S  S  S  S T  S. Q.       E   T
-------------------------------|-------------------------------------|
-------------------------------|-------------------------------------|
--5--7p-5h-7p-5-7s-9-----------|-----7p-5h-7p-5-7s-9--7br------5~--L-|
---------------------7~--------|-------------------------------------|
-------------------------------|-------------------------------------|
-------------------------------|-------------------------------------|


                       PM   PM      PM
  E  E.  S  S  E  Q    S  S S     S S  S S  S  S E  S E  S S E    S
-------------------------------|-----------------8--8-8--8-8---------|
------------------8------------|-----------------------------5br-----|
--L------5h-7p-5-------5--5-5--|--5-5--0-5h-7p-5------------------7p-|
-------------------------------|-------------------------------------|
-------------------------------|-------------------------------------|
-------------------------------|-------------------------------------|


                               ^         T     T       T     T     T
  S S  E.   E.   Q     Q       Q.        E     Q       E     E     Q.
----------------------------|--0------------<>12--------------------------|
----------------------------|--1--------------------<>13------------------|
--5-------------------------|--0------<>12----------------<>12------------|
----7s-5~---2s---3s----2----|--2--------------------------------<>14------|
----------------------------|--3------------------------------------------|
----------------------------|--0------------------------------------------|


                          PM PM
  S  S S E  S  Q.      E  S  S     S  S S E    S  Q     T  T  S S  S  S  S
--------------------------------|------------------------------------------|
---------8----------------------|---------8s--12s-8~-----------------------|
--7S-9-9----9s-7~------L--------|--7S-9-9---------------9s-7p-5-7p-5h-7p-5-|
--------------------------5--5--|------------------------------------------|
--------------------------------|------------------------------------------|
--------------------------------|------------------------------------------|


                                                         PM
  S  S H         E  S  S  S  S    S  S Q.       Q    S S S  S
-------------------------------|------------------------------|
-------------------------------|---------------------8--------|
--7s-9--------------7p-5h-7p-5-|--7s-9-7br------5------5-5--5-|
-------7~--------L-------------|------------------------------|
-------------------------------|------------------------------|
-------------------------------|------------------------------|


  PM PM                                   PM   PM
  S  S  Q.      S  S S S S S   S S    E   S  S S  S S S S  S Q.
-----------------------------------|---------------------------------|
-----------------------------------|---------------------------------|
--5--5--5~------7p-5-------7br-L-5-|--5~--5--5-5--5-5--------5~------|
---------------------7-5-----------|------------------5-5h-7---------|
-------------------------x---------|---------------------------------|
-------------------------x---------|---------------------------------|


  Q     H.              W                   W
---------------------|-------------------|-------------------|
---------------------|-------------------|-------------------|
--L\-----------------|-------------------|-------------------|
---------------------|-------------------|-------------------|
---------------------|-------------------|-------------------|
---------------------|-------------------|-------------------|


  W                   W                   W                   W
-------------------|-------------------|-------------------|-------------------|
-------------------|-------------------|-------------------|-------------------|
-------------------|-------------------|-------------------|-------------------|
-------------------|-------------------|-------------------|-------------------|
-------------------|-------------------|-------------------|-------------------|
-------------------|-------------------|-------------------|-------------------|


  W                   W                   W                   W
-------------------|-------------------|-------------------|-------------------|
-------------------|-------------------|-------------------|-------------------|
-------------------|-------------------|-------------------|-------------------|
-------------------|-------------------|-------------------|-------------------|
-------------------|-------------------|-------------------|-------------------|
-------------------|-------------------|-------------------|-------------------|


  W                   W                   W                   W
-------------------|-------------------|-------------------|-------------------|
-------------------|-------------------|-------------------|-------------------|
-------------------|-------------------|-------------------|-------------------|
-------------------|-------------------|-------------------|-------------------|
-------------------|-------------------|-------------------|-------------------|
-------------------|-------------------|-------------------|-------------------|


-------------------|-------------------|-------------------|-------------------|
-------------------|-------------------|-------------------|-------------------|
-------------------|-------------------|-------------------|-------------------|
-------------------|-------------------|-------------------|-------------------|
-------------------|-------------------|-------------------|-------------------|
-------------------|-------------------|-------------------|-------------------|


-------------------|-------------------|-------------------|-------------------|
-------------------|-------------------|-------------------|-------------------|
-------------------|-------------------|-------------------|-------------------|
-------------------|-------------------|-------------------|-------------------|
-------------------|-------------------|-------------------|-------------------|
-------------------|-------------------|-------------------|-------------------|


-------------------|-------------------|-------------------|-------------------|
-------------------|-------------------|-------------------|-------------------|
-------------------|-------------------|-------------------|-------------------|
-------------------|-------------------|-------------------|-------------------|
-------------------|-------------------|-------------------|-------------------|
-------------------|-------------------|-------------------|-------------------|


-------------------|-------------------|-------------------|-------------------|
-------------------|-------------------|-------------------|-------------------|
-------------------|-------------------|-------------------|-------------------|
-------------------|-------------------|-------------------|-------------------|
-------------------|-------------------|-------------------|-------------------|
-------------------|-------------------|-------------------|-------------------|


-------------------|-------------------|-------------------|-------------------|
-------------------|-------------------|-------------------|-------------------|
-------------------|-------------------|-------------------|-------------------|
-------------------|-------------------|-------------------|-------------------|
-------------------|-------------------|-------------------|-------------------|
-------------------|-------------------|-------------------|-------------------|


-------------------|-------------------|-------------------|-------------------|
-------------------|-------------------|-------------------|-------------------|
-------------------|-------------------|-------------------|-------------------|
-------------------|-------------------|-------------------|-------------------|
-------------------|-------------------|-------------------|-------------------|
-------------------|-------------------|-------------------|-------------------|


-------------------|-------------------|-------------------|-------------------|
-------------------|-------------------|-------------------|-------------------|
-------------------|-------------------|-------------------|-------------------|
-------------------|-------------------|-------------------|-------------------|
-------------------|-------------------|-------------------|-------------------|
-------------------|-------------------|-------------------|-------------------|


-------------------|-------------------|-------------------|-------------------|
-------------------|-------------------|-------------------|-------------------|
-------------------|-------------------|-------------------|-------------------|
-------------------|-------------------|-------------------|-------------------|
-------------------|-------------------|-------------------|-------------------|
-------------------|-------------------|-------------------|-------------------|


-------------------|-------------------|-------------------|-------------------|
-------------------|-------------------|-------------------|-------------------|
-------------------|-------------------|-------------------|-------------------|
-------------------|-------------------|-------------------|-------------------|
-------------------|-------------------|-------------------|-------------------|
-------------------|-------------------|-------------------|-------------------|


-------------------|-------------------|-------------------|
-------------------|-------------------|-------------------|
-------------------|-------------------|-------------------|
-------------------|-------------------|-------------------|
-------------------|-------------------|-------------------|
-------------------|-------------------|-------------------|


  H        Q    E.   S
------------------------|
------------------------|
--------------------14h-|
------------------------|
------------------------|
------------------------|


   S  S  S   S  S  S   S  S  S   S  S  S   S   S  S  S
-----18--------17--------15----------------------20-----|
-----------------------------------18-------------------|
--15----14h-15--------------14h-15----14h-15s-17----15h-|
------------------14h-15--------------------------------|
--------------------------------------------------------|
--------------------------------------------------------|


   S  S  S   S  S  S   S  S  S   S  S  S   S  S   S  S
-----17------------------18--------17--------13h-15-----|
---------------18---------------------------------------|
--17----14h-15--------------14h-15----15h-17--------13h-|
------------------14h-15--------------------------------|
--------------------------------------------------------|
--------------------------------------------------------|


   S  S  S   S  S  S   S  S  S   S  S  S   S  S   S  S
-----16--------15-----------------------------------16-|
-------------------------16--------18------------------|
--15----13h-15--------------13h-15-----------13h-15----|
------------------13h-15--------------13h-15-----------|
-------------------------------------------------------|
-------------------------------------------------------|


   S   S  S  S   S H        E.
--------------------------------|-------------------|-------------------|
---------16---------------------|-------------------|-------------------|
--15p-13------------------------|-------------------|-------------------|
------------15p-13--------------|-------------------|-------------------|
--------------------------------|-------------------|-------------------|
--------------------------------|-------------------|-------------------|


-------------------|-------------------|-------------------|-------------------|
-------------------|-------------------|-------------------|-------------------|
-------------------|-------------------|-------------------|-------------------|
-------------------|-------------------|-------------------|-------------------|
-------------------|-------------------|-------------------|-------------------|
-------------------|-------------------|-------------------|-------------------|


-------------------|-------------------|-------------------|-------------------|
-------------------|-------------------|-------------------|-------------------|
-------------------|-------------------|-------------------|-------------------|
-------------------|-------------------|-------------------|-------------------|
-------------------|-------------------|-------------------|-------------------|
-------------------|-------------------|-------------------|-------------------|


-------------------|-------------------|-------------------|-------------------|
-------------------|-------------------|-------------------|-------------------|
-------------------|-------------------|-------------------|-------------------|
-------------------|-------------------|-------------------|-------------------|
-------------------|-------------------|-------------------|-------------------|
-------------------|-------------------|-------------------|-------------------|


-------------------|-------------------|-------------------|-------------------|
-------------------|-------------------|-------------------|-------------------|
-------------------|-------------------|-------------------|-------------------|
-------------------|-------------------|-------------------|-------------------|
-------------------|-------------------|-------------------|-------------------|
-------------------|-------------------|-------------------|-------------------|


-------------------|-------------------|-------------------|-------------------|
-------------------|-------------------|-------------------|-------------------|
-------------------|-------------------|-------------------|-------------------|
-------------------|-------------------|-------------------|-------------------|
-------------------|-------------------|-------------------|-------------------|
-------------------|-------------------|-------------------|-------------------|


                             TH
                      Q      Q     H           S  E  S  E  E.  S  Q.
-------------------|------------------------|-----------------------------|
-------------------|------------------------|--------------8--------------|
-------------------|--5----<>5~-------------|--------7s-9------9s-7~------|
-------------------|------------------------|----\5-----------------------|
-------------------|------------------------|-----------------------------|
-------------------|------------------------|-----------------------------|


  PM PM
  S  S  S  E  E.    E    Q     E      E   S   E   E  S  Q.      E
----------------------------------|--------------------------------|
--------------8s---12s--13----15--|------15s-17--------------------|
--------7s-9----------------------|--12----------14----14~---------|
--5--5----------------------------|--------------------------------|
----------------------------------|--------------------------------|
----------------------------------|--------------------------------|


   S  S   S  S  S   S  S  S   S  S  S   S  Q
--17--------16--------15--------14--------13~----|
-------------------------------------------------|
-----17s-16----16s-15----15p-14----14s-13--------|
-------------------------------------------------|
-------------------------------------------------|
-------------------------------------------------|


  E   Q      S  S   E.   E   E.     S  S   S  E   S   S  S   E   E   Q
-----12br----L-10-------15-------|------------------------------15--------|
------------------/13------------|-----------13--15p-13-------------13----|
----------------------------12---|----12h-14------------14p-12------------|
---------------------------------|----------------------------------------|
---------------------------------|----------------------------------------|
---------------------------------|----------------------------------------|


   S  S  E   S   S   S  S   S   Q     E.      E   S  S   T E   Q     S. Q
--------15--------------------------------|------15--------------------------||
--12-13-----13p-12h-13-13s-15s-12~--------|--13-----13s-15----17~------------||
------------------------------------------|----------------------------------||
------------------------------------------|----------------------------------||
------------------------------------------|----------------------------------||
------------------------------------------|----------------------------------||


Bridge
     W                   W                   W
E||-------------------|-------------------|-------------------|
B||-------------------|-------------------|-------------------|
G||-------------------|-------------------|-------------------|
D||-------------------|-------------------|-------------------|
A||-------------------|-------------------|-------------------|
E||-------------------|-------------------|-------------------|


  W                   W                   W                   W
-------------------|-------------------|-------------------|-------------------|
-------------------|-------------------|-------------------|-------------------|
-------------------|-------------------|-------------------|-------------------|
-------------------|-------------------|-------------------|-------------------|
-------------------|-------------------|-------------------|-------------------|
-------------------|-------------------|-------------------|-------------------|


  W                   W                   W                   W
-------------------|-------------------|-------------------|-------------------|
-------------------|-------------------|-------------------|-------------------|
-------------------|-------------------|-------------------|-------------------|
-------------------|-------------------|-------------------|-------------------|
-------------------|-------------------|-------------------|-------------------|
-------------------|-------------------|-------------------|-------------------|


  W                   W                   W
-------------------|-------------------|-------------------|
-------------------|-------------------|-------------------|
-------------------|-------------------|-------------------|
-------------------|-------------------|-------------------|
-------------------|-------------------|-------------------|
-------------------|-------------------|-------------------|


                                        T
  Q.      S  S E   S  Q    S    E.      H.           S
-----------------------------|-------------------------|
-----------------------------|-------------------------|
---------------5h--7p-5----L-|--L~---<>17--------------|
----------5h-7---------------|-------------------------|
-----------------------------|-------------------------|
-----------------------------|-------------------------|


                         PM PM         PM
  S  S S E  S  H         S  S     S  S S  E    S  Q     S  S S  S S  S
-------------------------------|---------------------------------------|
---------8---------------------|----------8s--12s-8--------------------|
--7S-9-9----9s-7~--------------|--7S-9-9---------------\7s-5-7p-5-7p-5-|
-------------------------5--5--|---------------------------------------|
-------------------------------|---------------------------------------|
-------------------------------|---------------------------------------|


                   PM PM
  S  S   H         S  S  S  S S  S    S  S S  E   S S  S   S  S S  E   E.
-----------------------------------|---------------------------------------|
-----------------------------------|-------8-------------------------------|
--7s-9-------------0--0--7p-5-7p-5-|--7s-9----7p--5-7p-5-<>7p-5------------|
-------<>7~------------------------|----------------------------7p-5~------|
-----------------------------------|---------------------------------------|
-----------------------------------|---------------------------------------|


                      \1/                                \1/
   S   E   E.   S  E  Q    S  S   S     E   S  E  S   E  E.  S  E.    S
------------------------------------|-------------------------------------|
--10s-13--13---10s-8--L------10s-13-|--13--10s-8---------------12b---12pb-|
------------------------------------|-------------9s-12--L----------------|
------------------------------------|-------------------------------------|
------------------------------------|-------------------------------------|
------------------------------------|-------------------------------------|


   E  Q      Q    Q.         E  S  E   S   S   S  Q    E   E
-------------------------|--12----12--12s-13s-12-12-------12br--|
-------------------------|--------------------------------------|
--12--7s----10----9------|------9-------------------------------|
-------------------------|--------------------------------------|
-------------------------|--------------------------------------|
-------------------------|--------------------------------------|


   S  S  S  S  S  S  S  S  S E  S   E   E
--10----15---------------------------------|
-----13------------------------------------|
-----------12-14----14-14s-9-8--7-<>5~-----|
-----------------12------------------------|
-------------------------------------------|
-------------------------------------------|


  S  S S  E   E    S S  Q     S S S    S   E.     S  E   E    S   Q.
------------------------------------|------------------------------------|
------------------------------------|-------------------13s--15s-13------|
-------5s-7s--9s--12----------------|----<>5~---/12-13-------------------|
--3h-5---------------9s-7~------5-6-|------------------------------------|
------------------------------------|------------------------------------|
------------------------------------|------------------------------------|


       PM PM                          T
  Q    S  S  S E   S Q.         E     Q     S S S.  Q     S S.
-----------------------------|---------------------------------|
-----------------------------|----------------8----------------|
-------5--5----5h--7-5~------|-------------/9------\7~----L----|
-----------------------------|--5--<>17------------------------|
-----------------------------|---------------------------------|
-----------------------------|---------------------------------|


                     T      T      T              T          T
   S S S Q       E   T   T  T   T  T   T   T   T  T   T   T  S  T
---------3~----/15--17p-15-17p-15-17p-14h-15p-14-17p-15h-16-17\---|
-----8------------------------------------------------------------|
--/9--------------------------------------------------------------|
------------------------------------------------------------------|
------------------------------------------------------------------|
------------------------------------------------------------------|


  E  Q     Q     Q     E      E    Q         S   S  S  E.   E   E
--------------------------|--15b--15pbr~----13p-12-13--------------|
--5--5b----5~-------------|---------------------------13~---L\-----|
--------------------------|----------------------------------------|
-----------------7~-------|----------------------------------------|
--------------------------|----------------------------------------|
--------------------------|----------------------------------------|


    E   E.   S  S   S  E   E   S   S  S  S
---------------------------------------------|
----------------------------------------15br-|
--/12--13---13-12s-13-13--13--12s-13-13------|
---------------------------------------------|
---------------------------------------------|
---------------------------------------------|


                      \1/                       \1/  \1/\1/
  E.      E   S  S  S Q     E.     S     S  S S E    E  Q    S  S. S. S
-------------15----------------------|----------------------------15-----|
--Lpbr---13-----13S-8-L----12br---10-|---L-12-8-L---10--5----L-----------|
-------------------------------------|-------------------------12----12s-|
-------------------------------------|-----------------------------------|
-------------------------------------|-----------------------------------|
-------------------------------------|-----------------------------------|


   S  S. S   S. S. S   S. S. S. Q
-----17--------19--------20-20-19b~----|
---------------------------------------|
--14----14s-16----16s-17---------------|
---------------------------------------|
---------------------------------------|
---------------------------------------|


                 \1/   \1/             \1/
  S  S   E   S   E.    E.   S   S  E   S
--L-19p-15--17S-12p---10---10h-12s-8--10--|
------------------------------------------|
------------------------------------------|
------------------------------------------|
------------------------------------------|
------------------------------------------|


  \1/  \1/   \1/  \1/
  S    S  S  S  S S   S  S S S  S   E.    S S
--8-------------------------------------------|
------10p-8----------------8------------------|
------------10s-7-7---7s-9---7p-5-<>7br---5---|
--------------------------------------------7-|
----------------------------------------------|
----------------------------------------------|


                                     Tap 19 while bending 7 ful
             PM PM PM                T
  S Q.       S  S  S  S   Q          S
--------------------------------------------------------------|
--------------------------------------------------------------|
--5-7\~---------------5-<>7brb----<>21------------------------|
-------------0--5--7------------------------------------------|
--------------------------------------------------------------|
--------------------------------------------------------------|


     T                  T
     S S    E  E   S    S  E.    S  S  S S S
---------------------------------------------|
---------------------------------------------|
---<>L-7pbr-L--5h--7-<>19p-5~----L/---\5-5-5-|
--------------------------------------\3-3-3-|
---------------------------------------------|
---------------------------------------------|


                                T
  S E.    S  S  S  Q     S  S   S S   S
---------------------------15h-17---/15-|
----------------------------------------|
--5-5s---17-17-17-17\-------------------|
--3-3s---15-15-15-15\-------------------|
----------------------------------------|
----------------------------------------|


   T      T       T          T          T      T      T
   T   T  T   T   T   T   T  T   T   T  T   T  T   T  T   T   E   E   S   S  S
--17p-15-------------------------------------------------------------------------|
---------17p-15h-17p-13h-15------------------------------------------12S-13-13---|
----------------------------17p-14p-12-----------------------------------------1-|
---------------------------------------14p-12-17p-14-17p-14s-10~-----------------|
---------------------------------------------------------------------------------|
---------------------------------------------------------------------------------|


  E  Q      Q    Q.          E  S  E.  Q.      S  E     S
-------------------------|--12----12-------------12br--10-|
-------------------------|--------------------------------|
--L--7s----10----9~------|------9-------------------------|
-------------------------|-------------x\------L----------|
-------------------------|-------------x\------L----------|
-------------------------|-------------x\------L----------|


   S  S  S   S. S. S   S. S. S   S  S  S  S  S
-----15--------17--------19--------20----20-----|
--13----------------------------------------16s-|
--------12s-14----14s-16----16s-17----17--------|
------------------------------------------------|
------------------------------------------------|
------------------------------------------------|


                                                \1/  \1/  \1/    \1/   \1/
   S  S  S   S  S  S  S  Q       E.   E     S   E.   E.   E   E  Q     S
-----20--------20-22-20-22br-------------|---------------------------------|
--17----17s-18------------------21~---L--|----/13--------------------------|
-----------------------------------------|----------13---------------------|
-----------------------------------------|---------------10--10------------|
-----------------------------------------|-----------------------8~----L---|
-----------------------------------------|---------------------------------|


  \1/              T      T         T         T
  H         E  T   S  T   T T   T   T   T  T  T   T
----------------------------8h-11h-13p-11p-8---------|
-----------------------------------------------------|
---------------------10h-17------------------13p-10h-|
-----------------------------------------------------|
--L\-----------8h-15---------------------------------|
-----------------------------------------------------|


     T             T      T          T          T          T
  T  T   T  S  T   T  T   T  T   T   T   T   T  T   T   T  T   T   S  T   T T
----------------------------13h-16h-20p-16p-13-----------------------------------|
---------------------------------------------------------------------------------|
--8------------------13h-17--------------------17p-14p-13-------------------8h-1-|
---------------------------------------------------------------------------------|
----15p-11p-8-13h-18--------------------------------------17p-14p-13-10h-13------|
---------------------------------------------------------------------------------|


            T         T      T      T      T      T      T          T      T
  T T   T   T  T   T  T   T  T   T  T   T  T   T  T   T  T   S  T   T. T.  T. T.
--------------11p-10-15p-11-15p-11---------------15p-11-15p-11-15h-18-15h-18-18--|h
----8h-11h-16----------------------14p-12-14p-12---------------------------------|
--8------------------------------------------------------------------------------|
---------------------------------------------------------------------------------|
---------------------------------------------------------------------------------|
---------------------------------------------------------------------------------|


   T
   S  Q       S Q     E.   S E     S E     E  S E  S S E.     S E
--21-21brb----L------------6-6--|--6-------6--6-6--6-6-------------|
----------------------9b--------|----9pb~--------------9pb~---9-6--|
----------------------8b--------|----------------------------------|
--------------------------------|----------------------------------|
----------------x\--------------|----------------------------------|
----------------x\--------------|----------------------------------|


                                   PM PM PM PM
    S  E   S  S   S  H             T  T  T  T
----------------------------------------------|
--/13-16--13-16p-13-16brb~--------------------|
----------------------------------15-13-------|
----------------------------------------15-13-|
----------------------------------------------|
----------------------------------------------|


            PM PM PM PM
  S  Q      T  T  T  T  T   E  S   T  T   T  T  T  T  T T   T  T  T
--------------------------------------------------------------------|
--------------------------------------------------------------------|
----15b----13----------15s-13--------11s-13-13-11-------------------|
--------------15-13------------8s-10--------------13-11-9h-11-------|
--------------------15----------------------------------------11-10-|
--------------------------------------------------------------------|


   T   T   T  T  T   T  T   T  T  T  Q     S   E   S   S  S   S
----------------------------------------------------------------|
---------------------------------------------/11--11s-13-13s-16-|
----------------------------------------------------------------|
----------------------------------------------------------------|
--11h-13p-10----10h-11------------------------------------------|
-------------13--------11p-10p-9p-8p-6~-------------------------|


                 \1/
  S  E.  E.      Q.        S  S  S
---------x\-------------------------|
--L-15---x\-------------------------|
---------x\---<>15b~------13--------|
-----------------------------15-----|
--------------------------------15s-|
------------------------------------|


                                  T      T      T      T      T       T      T
   S  S  S  S   S  S   S  E   T   T  T   T  T   T  T   T   T  T   T   T  T   T
--------------------------------------------------15h-18p-15------------15h-18h-|
-------------------------------------------13h-16------------16p-13h-16---------|
--------------------------------------------------------------------------------|
-----15-----------------------------13h-17--------------------------------------|
--18----17-18s-17-13s-17-15--15h-18---------------------------------------------|
--------------------------------------------------------------------------------|


      T      T          T      T      T      T      T          T      T      T
   T  T   T  T   T  T   T  T   T  T   T  T   T   T  T   T  T   T  T   T  T   T
--15------------------------------------15h-18p-15-----------------------------1-|
-----16p-13----------------------13h-16------------16p-13---------------15h-18---|
---------------------------------------------------------------------------------|
------------17p-13--------13h-17---------------------------------15h-19----------|
-------------------15h-18---------------------------------17h-20-----------------|
---------------------------------------------------------------------------------|


       T  T      T      T      T      T     T
   T   T  T   T  T   T  T   T  T   T  T  T  E  S E.    S S  S S
-----------------------------------------------------------------|
--15h-18---------------------------------------------------------|
---------20p-15-20p-15-20p-12-20p-12-20p-8-20----9b~---7-8s-7----|
--------------------------------------------------------------8s-|
-----------------------------------------------------------------|
-----------------------------------------------------------------|


   E    S  S  S S  E.     S   S  T   T   S  S  S  S
------------------10br-------------------------------|
-------------------------13p-11-13s-15s-13-13--------|
----------------------------------------------10~-L\-|
--10--/13-11-10--------------------------------------|
-----------------------------------------------------|
-----------------------------------------------------|


          ^
  S S S S E  E.   E   E  S E
----------------------1--1-----|
-------------------------------|
----------8--L\---3b-------3b--|
----------7--L\----------------|
----x---x----------------------|
-------------------------------|


  S   S   S   S E  S S  T T T T T T T T S. S. S      S Q     H        E.
-------------------------------------------1------|-----------------------|
----------------4---------------------------------|-----------------------|
--3pb-3pb-3pb-1----1-3b-1---------------3b----3br-|--1-3b-----------------|
--------------------------3-1-------1-3-----------|-----------------------|
------------------------------3-1-3---------------|-----------------------|
--------------------------------------------------|-----------------------|


   Q       E   Q      S   S  Q
--17br--------19b----18p-17-------|
----------15----------------18----|
----------------------------------|
----------------------------------|
----------------------------------|
----------------------------------|


                                   \1/
   T T  T   T  T T  S  T   T  T T  E   S  S  S  Q      S
----------------------------------------------------------|
--18---------------18-16s-14------16--13------------------|
-------20s-18-15-------------13----------15-13-15b----14h-|
----------------------------------------------------------|
----------------------------------------------------------|
----------------------------------------------------------|


   S  S  S   S  S  S   S  S  S   S  S  S   S  S  S   S
-----18--------17--------15--------18--------17--------|
-------------------------------------------------------|
--15----14h-15--------------14h-15---------------------|
------------------14h-15--------------14h-15-----------|
------------------------------------------------14h-15-|
-------------------------------------------------------|


   S  S   S  S  S   S  S  S   S  S  S   S  S  S   S  S
--15--------18--------17--------17--------17-13h-15-----|
-------------------------13h-15-------------------------|
---------------14h-15--------------14h-15-----------13h-|
-----14h-15---------------------------------------------|
--------------------------------------------------------|
--------------------------------------------------------|


   S  S  S   S  S  S   S  S  S   S  S  S   S  S   S  S
-----16--------15-----------------------------------16-|
-------------------------16--------18------------------|
--15----13h-15--------------13h-15-----------13h-15----|
------------------13h-15--------------13h-15-----------|
-------------------------------------------------------|
-------------------------------------------------------|


   S   S  S  S   S  S   S  S   S  S   S  Q      S    W
--------------------------------------------------|-------------------|
---------16---------------------------------------|-------------------|
--15p-13--------------------------------15b~------|-------------------|
------------15p-13---------------15h-18-----------|-------------------|
-------------------15p-13-15h-18------------------|-------------------|
--------------------------------------------------|-------------------|


  W                   W                   Q    S  E.    T  T  E    Q    S
-------------------|-------------------|---------------13-----------------|
-------------------|-------------------|------------------13------16------|
-------------------|-------------------|---------15b---------15b----------|
-------------------|-------------------|---------13b----------------------|
-------------------|-------------------|----------------------------------|
-------------------|-------------------|----------------------------------|


                      E.   S  S S  S  S S  S S  E   S  S  S
-------------------|------19-15---17------15----------------|
-------------------|-----------------17--------15--13-15-13-|
-------------------|----------------------------------------|
-------------------|----------------------------------------|
-------------------|----------------------------------------|
-------------------|----------------------------------------|


                    PM PM
   E.     S E.    S S  S  E.   E.     E.   S  S S S  S S S  S  S S S T  S.
-----------------------------------|---------------------------------------|
--15br---13--------------------8---|--L\--------3------5---------6---6s-8~-|
------------7br---5----5--7~-------|---------------------------------------|
--------------------7--------------|-------3s-4---4s-5---5s-6h-7---7-7s-9~-|
-----------------------------------|---------------------------------------|
-----------------------------------|---------------------------------------|


                     T     T
  S E  E   Q     E   S   S S  S S
--------------------15s-17--------|
--L-------------------------------|
-------9b--L~---------------------|
--L----8b--L~--------------5s-7---|
----------------------------------|
----------------------------------|


   T     T      T     T    T     T      T
   S   S S   S  S   S S  S S   S S   S  E  T   T S
--12s-15-------10s-12------8s-10-------------------|
---------------------------------------13--Ls-20---|
---------------------------------9s-12-------------|
---------------------------------------------------|
---------7s-10--------5s-7-------------------------|
---------------------------------------------------|


  S S S  T  S. S S S S S S   S E   E
---------------------------------------|
--8------------------------------------|
----9-7-12s-5--------------------------|
---------------7-5---------<>7-5~--L/--|
-------------------7-5-x-3-------------|
---------------------------------------|


   E  S  S  E   S   E   S  S  S  S  S  S  S
--------------------------------------------|
--/8--8-10-10--10s-12--12-12-13-13-13-13-13-|
--------------------------------------------|
--/5--5--7--7---7s--9---9--9-10-10-10-10-10-|
--------------------------------------------|
--------------------------------------------|


   E   S   E   S   E   S  S  S  S  S  S   E
---------------------------------------------|
--13--13s-15--15s-12--12-12-12-12-13-13s-10--|
---------------------------------------------|
--10--10s-12--12s--9---9--9--9--9-10-10s--7--|
---------------------------------------------|
---------------------------------------------|


   S  S  S  S S S  S  S  S  S  S   S  E   E
---------------------------------------------|
--10-12-12-12--------------------------------|
--------------9-9-12-12-12-12----------------|
---7--9--9--9-9-9-12-12-12-12-12s-14-10--12--|
--------------7-7-10-10-10-10-12s-14-10--12--|
------------------------------10s-12--8--10--|


                        T         T         T         T
  S E.   Q.      T   T  T  T   T  T  T   T  T  T   T  T
----------------------------------------------12h-15-17h-|
------------------------------------13h-15-17------------|
--------------------------12h-14-17----------------------|
--L-7---12------12h-14-17--------------------------------|
--L-7---12-----------------------------------------------|
--L-5---10-----------------------------------------------|


                                          \1/
   S  Q      E     S  E    S  S  S  T   T E
--15-20b----20br--17-20~----------------------|
--------------------------17-17-20-13s-15-L---|
----------------------------------------------|
----------------------------------------------|
----------------------------------------------|
----------------------------------------------|


  E   S   S  S   S  S   S  S   E   S  S   S  S  S
-----17p-15-15p-12-12s-10-10h-15--12-12s-10-10s-8-|
--------------------------------------------------|
--------------------------------------------------|
--------------------------------------------------|
--------------------------------------------------|
--------------------------------------------------|


     \1/ \1/\1/    \1/ \1/
  S  E   E  E   S  E   S   E.  S  S
--8-12--10--8---5h-8---5---3---------|
---------------------------------12b-|
-------------------------------------|
-------------------------------------|
-------------------------------------|
-------------------------------------|


   S  S    E  S   S  S E   S   S  S  S  E   S
--------------------------10s-13-13-12-15--12s-|
---L-12pb--------------------------------------|
----------12--7s-10-10-9-----------------------|
-----------------------------------------------|
-----------------------------------------------|
-----------------------------------------------|


                   \1/ \1/ \1/
   S  S   S  S  S  E   S   Q.     E      S S  S S  Q    S  Q      E  S
--15-12h-15-15-12-17--12--15---------|--13---12-----------12br---------|
-------------------------------------|------------10--------------9----|
-------------------------------------|---------------------------------|
-------------------------------------|---------------------------------|
-------------------------------------|---------------------------------|
-------------------------------------|---------------------------------|


   T   T   E.   E     S  S E  S  S S E  S
--17s-10b--L---10pb------------------------|
---------------------13-10-8---------8-----|
------------------------------7s-9-9----9s-|
-------------------------------------------|
-------------------------------------------|
-------------------------------------------|


  S S S  S S S  S S S  S  S S  S S S  S
----------------------------------------|
-----------8----------------------------|
--7-5-7s-9---9s-7-5-5h-7p-5-------------|
----------------------------7p-5--------|
---------------------------------7-7s-5-|
----------------------------------------|


  S S  S S S E  S.  T   T   T  T   T   T  T   T   T  T   T   T  T  S
---------------------------------------------------------------17-19-|
----------------------------------------------------17h-18h-20-------|
-----------------------------------------16h-17h-19------------------|
---------5--------------------15h-17h-19-----------------------------|
--5-5s-7---5-3--L/-15h-17h-19----------------------------------------|
---------------------------------------------------------------------|


                    T      T      T                  T      T
   Q      S  S  E   T   T  T   T  T   T   T   T   T  T   T  T   T   T   T   T
--19b----19-17-15--17p-15-----------------------------------------------------|
--------------------------17p-15-17p-15p-13h-15p-13---------------------------|
----------------------------------------------------17p-14-17p-14p-12h-14p-12-|
------------------------------------------------------------------------------|
------------------------------------------------------------------------------|
------------------------------------------------------------------------------|


      T        T
  T   T  T  T  T  S T S S  S  S  S  S  E   E    S   S
-----------------------------------13-----15s--16S-20-|
-----------------------------12-------13--------------|
--9h-12p-9p-7-12p-5---5-7h-9----13--------------------|
------------------------------------------------------|
------------------------------------------------------|
------------------------------------------------------|


   S  S  Q.      H
---L-22-20~---------------|-------|-------|-------|-------|-------|-------|
--------------------------|-------|-------|-------|-------|-------|-------|
--------------------------|-------|-------|-------|-------|-------|-------|
--------------------------|-------|-------|-------|-------|-------|-------|
--------------------------|-------|-------|-------|-------|-------|-------|
--------------------------|-------|-------|-------|-------|-------|-------|


-------|-------|-------||
-------|-------|-------||
-------|-------|-------||
-------|-------|-------||
-------|-------|-------||
-------|-------|-------||
comments
We did not receive enough feedback on this tab! Please rate:
print report bad tab
1 2 3 4 5
I want to post or [tab]
guest
You may want to rate the tab now too:
select rating
Please do not post tabs as comments. Select "correction" instead!