Oops, an error
Loading. Please wait.

Do It Like A Dude Tab

ver2
ver2

Whole song

More versions @911Tabs.com
7,244 views 12 this week
no commentswrite comment
1 2 3 4 5
excellent!
x 1
Autoscroll
+/-
esc
set tempo
stop
Contributor
Difficulty
intermediate
WARNING: You are trying to view
                                    content from Ultimate-Guitar.com
                                    in an unauthorized application,
                                    which is prohibited.

                                    Please use an official Ultimate
                                    Guitar Tabs application for iPhone,
                                    iPad or Android to access legitimate
                                    chords, guitar, bass, and drum tabs
                                    from Ultimate-Guitar.com database.

                                    Type "ultimate guitar tabs" in Apple
                                    App Store's or Android Market's
                                    search to find the application.
This is my first tab, So don't be to harsh on it.

OK, this is the tab to the acoustic version of "Do It Like Dude"
Here is a video of some chick I found that I thought  would make a tab to.

http://www.youtube.com/watch?v=E4uRZRD-i94

Watch it to get the strum pattern, and rhythm of this version of the song.

*Here you go Adesua, Practice this and you should be able to get it by Friday*



Capo on 4th Fret

Intro

   Am                C                 G                 D
   1 + 2 + 3 + 4 +   1 + 2 + 3 + 4 +   1 + 2 + 3 + 4 +   1 + 2 + 3 + 4 +
e|-------x-------x-|-------x-------x-|-----3-x-----3-x-|-----2-x-----2-x-|-
B|-----1-x-----1-x-|-----1-x-----1-x-|-----3-x-----3-x-|-----3-x-----3-x-|-
G|-----2-x-----1-x-|-----0-x-----0-x-|-----0-x-----0-x-|-----2-x-----2-x-|-
D|-----2-x-----2-x-|-----2-x-----2-x-|-------x-------x-|-0-----x-0-----x-|-
A|-0-----x-0-----x-|-3-----x-3-----x-|-------x-------x-|-------x-------x-|-
E|-------x-------x-|-------x-------x-|-3-----x-3-----x-|-------x-------x-|- 

   Am                C                 G                 D
   1 + 2 + 3 + 4 +   1 + 2 + 3 + 4 +   1 + 2 + 3 + 4 +   1 + 2 + 3 + 4 +
e|-------x-------x-|-------x-------x-|-----3-x-----3-x-|-----2-x-----2-x-|-
B|-----1-x-----1-x-|-----1-x-----1-x-|-----3-x-----3-x-|-----3-x-----3-x-|-
G|-----2-x-----1-x-|-----0-x-----0-x-|-----0-x-----0-x-|-----2-x-----2-x-|-
D|-----2-x-----2-x-|-----2-x-----2-x-|-------x-------x-|-0-----x-0-----x-|-
A|-0-----x-0-----x-|-3-----x-3-----x-|-------x-------x-|-------x-------x-|-
E|-------x-------x-|-------x-------x-|-3-----x-3-----x-|-------x-------x-|-


   Am      C         G       D         Am      C         G       D          
   1 + 2 + 3 + 4 +   1 + 2 + 3 + 4 +   1 + 2 + 3 + 4 +   1 + 2 + 3 + 4 +
e|---------------x-|-----3-x-----2-x-|-------x-------x-|-----3-x-----2-x-|-
B|-------------1-x-|-----3-x-----3-x-|-----1-x-----1-x-|-----3-x-----3-x-|-
G|-------------0-x-|-----0-x-----2-x-|-----2-x-----0-x-|-----0-x-----2-x-|-
D|-------------2-x-|-------x-0-----x-|-----2-x-----2-x-|-------x-0-----x-|-
A|-0-0-----3-----x-|-------x-------x-|-0-----x-3-----x-|-------x-------x-|-
E|---------------x-|-3-----x-------x-|-------x-------x-|-3-----x-------x-|-

   Am      C         G       D          
   1 + 2 + 3 + 4 +   1 + 2 + 3 + 4 + 
e|-------x-------x-|-----------------|-
B|-----1-x-----1-x-|-----------------|-
G|-----2-x-----0-x-|-----------------|-
D|-----2-x-----2-x-|---------0-x-----|-
A|-0-----x-3-----x-|-----------------|-
E|-------x-------x-|-3---------------|-

   Am                C                 G                 D
   1 + 2 + 3 + 4 +   1 + 2 + 3 + 4 +   1 + 2 + 3 + 4 +   1 + 2 + 3 + 4 +
e|-0-0-0-0-0-0-0-0-|-0-0-0-0-0-0-0-0-|-3-3-3-3-3-3-3-3-|-2-2-2-2-2-2-2-2-|-
B|-1-1-1-1-1-1-1-1-|-1-1-1-1-1-1-1-1-|-3-3-3-3-3-3-3-3-|-3-3-3-3-3-3-3-3-|-
G|-2-2-2-2-2-2-2-2-|-0-0-0-0-0-0-0-0-|-0-0-0-0-0-0-0-0-|-2-2-2-2-2-2-2-2-|-
D|-2-2-2-2-2-2-2-2-|-2-2-2-2-2-2-2-2-|-0-0-0-0-0-0-0-0-|-0-0-0-0-0-0-0-0-|-
A|-0-0-0-0-0-0-0-0-|-3-3-3-3-3-3-3-3-|-2-2-2-2-2-2-2-2-|-x-x-x-x-x-x-x-x-|-
E|-x-x-x-x-x-x-x-x-|-x-x-x-x-x-x-x-x-|-3-3-3-3-3-3-3-3-|-x-x-x-x-x-x-x-x-|-

   Am                C                 G                 D
   1 + 2 + 3 + 4 +   1 + 2 + 3 + 4 +   1 + 2 + 3 + 4 +   1 + 2 + 3 + 4 +
e|-0-0-0-0-0-0-0-0-|-0-0-0-0-0-0-0-0-|-3-3-3-3-3-3-3-3-|-2---------------|-
B|-1-1-1-1-1-1-1-1-|-1-1-1-1-1-1-1-1-|-3-3-3-3-3-3-3-3-|-3---------------|-
G|-2-2-2-2-2-2-2-2-|-0-0-0-0-0-0-0-0-|-0-0-0-0-0-0-0-0-|-2--Let it Ring--|-
D|-2-2-2-2-2-2-2-2-|-2-2-2-2-2-2-2-2-|-0-0-0-0-0-0-0-0-|-0---------------|-
A|-0-0-0-0-0-0-0-0-|-3-3-3-3-3-3-3-3-|-2-2-2-2-2-2-2-2-|-x---------------|-
E|-x-x-x-x-x-x-x-x-|-x-x-x-x-x-x-x-x-|-3-3-3-3-3-3-3-3-|-x---------------|-

   Am                C                 G                 D
   1 + 2 + 3 + 4 +   1 + 2 + 3 + 4 +   1 + 2 + 3 + 4 +   1 + 2 + 3 + 4 +
e|-0-0-0-0-0-0-0-0-|-0-0-0-0-x-------|-3-3-3-3-x-------|-2-2-2-2-2-2-2-2-|-
B|-1-1-1-1-1-1-1-1-|-1-1-1-1-x-------|-3-3-3-3-x-------|-3-3-3-3-3-3-3-3-|-
G|-2-2-2-2-2-2-2-2-|-0-0-0-0-x-------|-0-0-0-0-x-------|-2-2-2-2-2-2-2-2-|-
D|-2-2-2-2-2-2-2-2-|-2-2-2-2-x-------|-0-0-0-0-x-------|-0-0-0-0-0-0-0-0-|-
A|-0-0-0-0-0-0-0-0-|-3-3-3-3-x-------|-2-2-2-2-x-------|-x-x-x-x-x-x-x-x-|-
E|-x-x-x-x-x-x-x-x-|-x-x-x-x-x-------|-3-3-3-3-x-------|-x-x-x-x-x-x-x-x-|-

   Am                C                 G                 D
   1 + 2 + 3 + 4 +   1 + 2 + 3 + 4 +   1 + 2 + 3 + 4 +   1 + 2 + 3 + 4 +
e|-0-0-0-0-x-------|-0-0-0-0-x-------|-3-3-3-3-x-------|-2---2-2---------|-
B|-1-1-1-1-x-------|-1-1-1-1-x-------|-3-3-3-3-x-------|-3---3-3---------|-
G|-2-2-2-2-x-------|-0-0-0-0-x-------|-0-0-0-0-x-------|-2---2-2---------|-
D|-2-2-2-2-x-------|-2-2-2-2-x-------|-0-0-0-0-x-------|-0---0-0---------|-
A|-0-0-0-0-x-------|-3-3-3-3-x-------|-2-2-2-2-x-------|-x---x-x---------|-
E|-x-x-x-x-x-------|-x-x-x-x-x-------|-3-3-3-3-x-------|-x---x-x---------|-

   Am                C                 G                 D
   1 + 2 + 3 + 4 +   1 + 2 + 3 + 4 +   1 + 2 + 3 + 4 +   1 + 2 + 3 + 4 +
e|-0---0---0-0-0-0-|-0-0-0-0-0-0-0-0-|-3-3-3-3-3-3-3-3-|-2-2-2-2-2-2-2-2-|-
B|-1---1---1-1-1-1-|-1-1-1-1-1-1-1-1-|-3-3-3-3-3-3-3-3-|-3-3-3-3-3-3-3-3-|-
G|-2---2---2-2-2-2-|-0-0-0-0-0-0-0-0-|-0-0-0-0-0-0-0-0-|-2-2-2-2-2-2-2-2-|-
D|-2---2---2-2-2-2-|-2-2-2-2-2-2-2-2-|-0-0-0-0-0-0-0-0-|-0-0-0-0-0-0-0-0-|-
A|-0---0---0-0-0-0-|-3-3-3-3-3-3-3-3-|-2-2-2-2-2-2-2-2-|-x-x-x-x-x-x-x-x-|-
E|-x---x---x-x-x-x-|-x-x-x-x-x-x-x-x-|-3-3-3-3-3-3-3-3-|-x-x-x-x-x-x-x-x-|-

   Am                C                 G                 D
   1 + 2 + 3 + 4 +   1 + 2 + 3 + 4 +   1 + 2 + 3 + 4 +   1 + 2 + 3 + 4 +
e|-0-0-0-0-0-0-0-0-|-0-0-0-0-0-0-0-0-|-3-3-3-3-x-------|---------2-2-x---|-
B|-1-1-1-1-1-1-1-1-|-1-1-1-1-1-1-1-1-|-3-3-3-3-x-------|---------3-3-x---|-
G|-2-2-2-2-2-2-2-2-|-0-0-0-0-0-0-0-0-|-0-0-0-0-x-------|---------2-2-x---|-
D|-2-2-2-2-2-2-2-2-|-2-2-2-2-2-2-2-2-|-0-0-0-0-x-------|---------0-0-x---|-
A|-0-0-0-0-0-0-0-0-|-3-3-3-3-3-3-3-3-|-2-2-2-2-x-------|---------x-x-x---|-
E|-x-x-x-x-x-x-x-x-|-x-x-x-x-x-x-x-x-|-3-3-3-3-x-------|---------x-x-x---|-

   Am                C                 G                 D
   1 + 2 + 3 + 4 +   1 + 2 + 3 + 4 +   1 + 2 + 3 + 4 +   1 + 2 + 3 + 4 +
e|-0-0-0-0-0-0-0-0-|-0-0-0-0-0-0-0-0-|-3-3-x-----------|---------2-2-x---|-
B|-1-1-1-1-1-1-1-1-|-1-1-1-1-1-1-1-1-|-3-3-x-----------|---------3-3-x---|-
G|-2-2-2-2-2-2-2-2-|-0-0-0-0-0-0-0-0-|-0-0-x-----------|---------2-2-x---|-
D|-2-2-2-2-2-2-2-2-|-2-2-2-2-2-2-2-2-|-0-0-x-----------|---------0-0-x---|-
A|-0-0-0-0-0-0-0-0-|-3-3-3-3-3-3-3-3-|-2-2-x-----------|---------x-x-x---|-
E|-x-x-x-x-x-x-x-x-|-x-x-x-x-x-x-x-x-|-3-3-x-----------|---------x-x-x---|-

   Am                C                 G                 D
   1 + 2 + 3 + 4 +   1 + 2 + 3 + 4 +   1 + 2 + 3 + 4 +   1 + 2 + 3 + 4 +
e|-0-0-0-0-0-0-0-0-|-0-0-0-0-0-0-0-0-|-3-3-3-3-3-3-3-3-|-2-2-2-2-2-2-2-2-|-
B|-1-1-1-1-1-1-1-1-|-1-1-1-1-1-1-1-1-|-3-3-3-3-3-3-3-3-|-3-3-3-3-3-3-3-3-|-
G|-2-2-2-2-2-2-2-2-|-0-0-0-0-0-0-0-0-|-0-0-0-0-0-0-0-0-|-2-2-2-2-2-2-2-2-|-
D|-2-2-2-2-2-2-2-2-|-2-2-2-2-2-2-2-2-|-0-0-0-0-0-0-0-0-|-0-0-0-0-0-0-0-0-|-
A|-0-0-0-0-0-0-0-0-|-3-3-3-3-3-3-3-3-|-2-2-2-2-2-2-2-2-|-x-x-x-x-x-x-x-x-|-
E|-x-x-x-x-x-x-x-x-|-x-x-x-x-x-x-x-x-|-3-3-3-3-3-3-3-3-|-x-x-x-x-x-x-x-x-|-

   Am                C                 G                 D
   1 + 2 + 3 + 4 +   1 + 2 + 3 + 4 +   1 + 2 + 3 + 4 +   1 + 2 + 3 + 4 +
e|-0-0-0-0-0-0-0-0-|-0-0-0-0-0-0-0-0-|-3-3-3-3-3-3-3-3-|-2-2-2-2-2-2-2-2-|-
B|-1-1-1-1-1-1-1-1-|-1-1-1-1-1-1-1-1-|-3-3-3-3-3-3-3-3-|-3-3-3-3-3-3-3-3-|-
G|-2-2-2-2-2-2-2-2-|-0-0-0-0-0-0-0-0-|-0-0-0-0-0-0-0-0-|-2-2-2-2-2-2-2-2-|-
D|-2-2-2-2-2-2-2-2-|-2-2-2-2-2-2-2-2-|-0-0-0-0-0-0-0-0-|-0-0-0-0-0-0-0-0-|-
A|-0-0-0-0-0-0-0-0-|-3-3-3-3-3-3-3-3-|-2-2-2-2-2-2-2-2-|-x-x-x-x-x-x-x-x-|-
E|-x-x-x-x-x-x-x-x-|-x-x-x-x-x-x-x-x-|-3-3-3-3-3-3-3-3-|-x-x-x-x-x-x-x-x-|-

   Am                C                 G                 D
   1 + 2 + 3 + 4 +   1 + 2 + 3 + 4 +   1 + 2 + 3 + 4 +   1 + 2 + 3 + 4 +
e|-0-0-0-0-x-------|---------0-0-x---|-3-3-3-3-x-------|-2-2-2-2-2-2-2-2-|-
B|-1-1-1-1-x-------|---------1-1-x---|-3-3-3-3-x-------|-3-3-3-3-3-3-3-3-|-
G|-2-2-2-2-x-------|---------0-0-x---|-0-0-0-0-x-------|-2-2-2-2-2-2-2-2-|-
D|-2-2-2-2-x-------|---------2-2-x---|-0-0-0-0-x-------|-0-0-0-0-0-0-0-0-|-
A|-0-0-0-0-x-------|---------3-3-x---|-2-2-2-2-x-------|-x-x-x-x-x-x-x-x-|-
E|-x-x-x-x-x-------|---------x-x-x---|-3-3-3-3-x-------|-x-x-x-x-x-x-x-x-|-

   Am                C                 G                 D
   1 + 2 + 3 + 4 +   1 + 2 + 3 + 4 +   1 + 2 + 3 + 4 +   1 + 2 + 3 + 4 +
e|-0-0-0-0-x-------|---------0-0-x---|-3-3-3-3-3-3-3-3-|-2-2-2-2-2-2-2-2-|-
B|-1-1-1-1-x-------|---------1-1-x---|-3-3-3-3-3-3-3-3-|-3-3-3-3-3-3-3-3-|-
G|-2-2-2-2-x-------|---------0-0-x---|-0-0-0-0-0-0-0-0-|-2-2-2-2-2-2-2-2-|-
D|-2-2-2-2-x-------|---------2-2-x---|-0-0-0-0-0-0-0-0-|-0-0-0-0-0-0-0-0-|-
A|-0-0-0-0-x-------|---------3-3-x---|-2-2-2-2-3-3-3-3-|-x-x-x-x-x-x-x-x-|-
E|-x-x-x-x-x-------|---------x-x-x---|-3-3-3-3-3-3-3-3-|-x-x-x-x-x-x-x-x-|-

   Am                C                 G                 D
   1 + 2 + 3 + 4 +   1 + 2 + 3 + 4 +   1 + 2 + 3 + 4 +   1 + 2 + 3 + 4 +
e|-----------------|-----------------|-------------3---|-------------2---|-
B|-------------1---|-------------1---|-------------3---|---------3-------|-
G|---------2-------|---------0-------|---------3-------|-----2-----------|-
D|-----2-----------|-----2-----------|-----0-----------|-0---------------|-
A|-0---------------|-3---------------|-----------------|-----------------|-
E|-----------------|-----------------|-3---------------|-----------------|-

   Am                C                 G                 D
   1 + 2 + 3 + 4 +   1 + 2 + 3 + 4 +   1 + 2 + 3 + 4 +   1 + 2 + 3 + 4 +
e|-----------------|-----------------|-------------3---|-------------2---|-
B|-------------1---|-------------1---|-------------3---|---------3-------|-
G|---------2-------|---------0-------|---------3-------|-----2-----------|-
D|-----2-----------|-----2-----------|-----0-----------|-0---------------|-
A|-0---------------|-3---------------|-----------------|-----------------|-
E|-----------------|-----------------|-3---------------|-----------------|-

   Am                C                 G                 D
   1 + 2 + 3 + 4 +   1 + 2 + 3 + 4 +   1 + 2 + 3 + 4 +   1 + 2 + 3 + 4 +
e|-0-0-0-0-0-0-0-0-|-0-0-0-0-0-0-0-0-|-3-3-3-3-3-3-3-3-|-2-2-2-2-2-2-2-2-|-
B|-1-1-1-1-1-1-1-1-|-1-1-1-1-1-1-1-1-|-3-3-3-3-3-3-3-3-|-3-3-3-3-3-3-3-3-|-
G|-2-2-2-2-2-2-2-2-|-0-0-0-0-0-0-0-0-|-0-0-0-0-0-0-0-0-|-2-2-2-2-2-2-2-2-|-
D|-2-2-2-2-2-2-2-2-|-2-2-2-2-2-2-2-2-|-0-0-0-0-0-0-0-0-|-0-0-0-0-0-0-0-0-|-
A|-0-0-0-0-0-0-0-0-|-3-3-3-3-3-3-3-3-|-2-2-2-2-2-2-2-2-|-x-x-x-x-x-x-x-x-|-
E|-x-x-x-x-x-x-x-x-|-x-x-x-x-x-x-x-x-|-3-3-3-3-3-3-3-3-|-x-x-x-x-x-x-x-x-|-

   Am                C                 G                 D
   1 + 2 + 3 + 4 +   1 + 2 + 3 + 4 +   1 + 2 + 3 + 4 +   1 + 2 + 3 + 4 +
e|-0-0-0-0-0-0-0-0-|-0-0-0-0-0-0-0-0-|-3-3-3-3-3-3-3-3-|-2-2-2-2-x-------|-
B|-1-1-1-1-1-1-1-1-|-1-1-1-1-1-1-1-1-|-3-3-3-3-3-3-3-3-|-3-3-3-3-x-------|-
G|-2-2-2-2-2-2-2-2-|-0-0-0-0-0-0-0-0-|-0-0-0-0-0-0-0-0-|-2-2-2-2-x-------|-
D|-2-2-2-2-2-2-2-2-|-2-2-2-2-2-2-2-2-|-0-0-0-0-0-0-0-0-|-0-0-0-0-x-------|-
A|-0-0-0-0-0-0-0-0-|-3-3-3-3-3-3-3-3-|-2-2-2-2-2-2-2-2-|-x-x-x-x-x-------|-
E|-x-x-x-x-x-x-x-x-|-x-x-x-x-x-x-x-x-|-3-3-3-3-3-3-3-3-|-x-x-x-x-x-------|-

   Am                C                 G                 D
   1 + 2 + 3 + 4 +   1 + 2 + 3 + 4 +   1 + 2 + 3 + 4 +   1 + 2 + 3 + 4 +
e|-0-0-x-----------|-0-0-x-----------|-3-3-x-----------|-2---2-2-2-2-2-2-|-
B|-1-1-x-----------|-1-1-x-----------|-3-3-x-----------|-3---3-3-2-2-2-2-|-
G|-2-2-x-----------|-0-0-x-----------|-0-0-x-----------|-2---2-2-2-2-2-2-|-
D|-2-2-x-----------|-2-2-x-----------|-0-0-x-----------|-0---0-0-2-2-2-2-|-
A|-0-0-x-----------|-3-3-x-----------|-2-2-x-----------|-x---x-x-x-x-x-x-|-
E|-x-x-x-----------|-x-x-x-----------|-3-3-x-----------|-x---x-x-x-x-x-x-|-

   Am                C                 G                 D
   1 + 2 + 3 + 4 +   1 + 2 + 3 + 4 +   1 + 2 + 3 + 4 +   1 + 2 + 3 + 4 +
e|-0-0-x-----------|---------0-0-x---|-3-3-3-3-3-3-3-3-|-2-2-2-2-2-2-2-2-|-
B|-1-1-x-----------|---------1-1-x---|-3-3-3-3-3-3-3-3-|-3-3-3-3-2-2-2-2-|-
G|-2-2-x-----------|---------0-0-x---|-0-0-0-0-0-0-0-0-|-2-2-2-2-2-2-2-2-|-
D|-2-2-x-----------|---------2-2-x---|-0-0-0-0-0-0-0-0-|-0-0-0-0-2-2-2-2-|-
A|-0-0-x-----------|---------3-3-x---|-2-2-2-2-2-2-2-2-|-x-x-x-x-x-x-x-x-|-
E|-x-x-x-----------|---------0-0-x---|-3-3-3-3-3-3-3-3-|-x-x-x-x-x-x-x-x-|-

   Am                C                 G                 D
   1 + 2 + 3 + 4 +   1 + 2 + 3 + 4 +   1 + 2 + 3 + 4 +   1 + 2 + 3 + 4 +
e|-0-0-0-0-0-0-0-0-|-0-0-0-0-0-0-0-0-|-3-3-3-3-3-3-3-3-|-2-2-2-2-2-2-2-2-|-
B|-1-1-1-1-1-1-1-1-|-1-1-1-1-1-1-1-1-|-3-3-3-3-3-3-3-3-|-3-3-3-3-3-3-3-3-|-
G|-2-2-2-2-2-2-2-2-|-0-0-0-0-0-0-0-0-|-0-0-0-0-0-0-0-0-|-2-2-2-2-2-2-2-2-|-
D|-2-2-2-2-2-2-2-2-|-2-2-2-2-2-2-2-2-|-0-0-0-0-0-0-0-0-|-0-0-0-0-0-0-0-0-|-
A|-0-0-0-0-0-0-0-0-|-3-3-3-3-3-3-3-3-|-2-2-2-2-2-2-2-2-|-x-x-x-x-x-x-x-x-|-
E|-x-x-x-x-x-x-x-x-|-x-x-x-x-x-x-x-x-|-3-3-3-3-3-3-3-3-|-x-x-x-x-x-x-x-x-|-

   Am                C                 G                 D
   1 + 2 + 3 + 4 +   1 + 2 + 3 + 4 +   1 + 2 + 3 + 4 +   1 + 2 + 3 + 4 +
e|-0-0-0-0-0-0-0-0-|-0-0-0-0-0-0-0-0-|-3-3-3-3-3-3-3-3-|-2-2-2-2-2-2-2-2-|-
B|-1-1-1-1-1-1-1-1-|-1-1-1-1-1-1-1-1-|-3-3-3-3-3-3-3-3-|-3-3-3-3-3-3-3-3-|-
G|-2-2-2-2-2-2-2-2-|-0-0-0-0-0-0-0-0-|-0-0-0-0-0-0-0-0-|-2-2-2-2-2-2-2-2-|-
D|-2-2-2-2-2-2-2-2-|-2-2-2-2-2-2-2-2-|-0-0-0-0-0-0-0-0-|-0-0-0-0-0-0-0-0-|-
A|-0-0-0-0-0-0-0-0-|-3-3-3-3-3-3-3-3-|-2-2-2-2-2-2-2-2-|-x-x-x-x-x-x-x-x-|-
E|-x-x-x-x-x-x-x-x-|-x-x-x-x-x-x-x-x-|-3-3-3-3-3-3-3-3-|-x-x-x-x-x-x-x-x-|-

   Am                C                 G                 D
   1 + 2 + 3 + 4 +   1 + 2 + 3 + 4 +   1 + 2 + 3 + 4 +   1 + 2 + 3 + 4 +
e|-0-0-0-0-0-0-0-0-|-0-0-0-0-x-------|-3-3-3-3-x-------|-2-2-2-2-2-2-2-2-|-
B|-1-1-1-1-1-1-1-1-|-1-1-1-1-x-------|-3-3-3-3-x-------|-3-3-3-3-3-3-3-3-|-
G|-2-2-2-2-2-2-2-2-|-0-0-0-0-x-------|-0-0-0-0-x-------|-2-2-2-2-2-2-2-2-|-
D|-2-2-2-2-2-2-2-2-|-2-2-2-2-x-------|-0-0-0-0-x-------|-0-0-0-0-0-0-0-0-|-
A|-0-0-0-0-0-0-0-0-|-3-3-3-3-x-------|-2-2-2-2-x-------|-x-x-x-x-x-x-x-x-|-
E|-x-x-x-x-x-x-x-x-|-x-x-x-x-x-------|-3-3-3-3-x-------|-x-x-x-x-x-x-x-x-|-

   Am                C                 G                 D
   1 + 2 + 3 + 4 +   1 + 2 + 3 + 4 +   1 + 2 + 3 + 4 +   1 + 2 + 3 + 4 +
e|-0-0-0-0-0-0-0-0-|-0-0-0-0-0-0-0-0-|-3-3-3-3-3-------|-2---------------|-
B|-1-1-1-1-1-1-1-1-|-1-1-1-1-1-1-1-1-|-3-3-3-3-3-------|-3---------------|-
G|-2-2-2-2-2-2-2-2-|-0-0-0-0-0-0-0-0-|-0-0-0-0-0-------|-2---------------|-
D|-2-2-2-2-2-2-2-2-|-2-2-2-2-2-2-2-2-|-0-0-0-0-0-------|-0---------------|-
A|-0-0-0-0-0-0-0-0-|-3-3-3-3-3-3-3-3-|-2-2-2-2-2-------|-x---------------|-
E|-x-x-x-x-x-x-x-x-|-x-x-x-x-x-x-x-x-|-3-3-3-3-3-------|-x---------------|-

   Am                         
   1 + 2 + 3 + 4 +   
e|-0---------------|-
B|-1---------------|-
G|-2--Let It Ring--|-
D|-2---------------|-
A|-0---------------|-
E|-0---------------|-
comments
We did not receive enough feedback on this tab! Please rate:
1 2 3 4 5
I want to post or [tab]
guest
You may want to rate the tab now too:
select rating
Please do not post tabs as comments. Select "correction" instead!