Oops, an error
Loading. Please wait.

Aqualung Bass Tab

ver2
ver2

Whole song

Interactive

More versions @911Tabs.com
4,040 views 4 this week
no commentswrite comment
1 2 3 4 5
accurate
x 1
Autoscroll
+/-
esc
set tempo
stop
Contributor
WARNING: You are trying to view
                                    content from Ultimate-Guitar.com
                                    in an unauthorized application,
                                    which is prohibited.

                                    Please use an official Ultimate
                                    Guitar Tabs application for iPhone,
                                    iPad or Android to access legitimate
                                    chords, guitar, bass, and drum tabs
                                    from Ultimate-Guitar.com database.

                                    Type "ultimate guitar tabs" in Apple
                                    App Store's or Android Market's
                                    search to find the application.
||--7--------5--6--5--|---------------|----------------|
||-----5--8-----------|---------------|----------------|
||--------------------|--4----4--4----|--/6--6----6----|
||--------------------|---------------|----------------|

|----------------------------------------|
|-------------------10-----10--11--------|
|--/8----8--8----8------8------------11--|
|----------------------------------------|

|---------------------------------------------||
|------------------------11----11--9-------7--||
|--13--13--13--13--11-----------------9-------||
|---------------------------------------------||


1:19
|------------------------------------------|
|--5----3----------------3----1------------|
|------------5-----2--3------------3-------|
|---------------3-----------------------1--|

|------------------------------------------|
|----------------1--3---------2----3----5--|
|-----0--1----3----------3-----------------|
|--1---------------------------------------|

|----------------------------------------------|
|-------1-------1--3/----5----3----------------|
|--3---------3---------------------3-----2--3--|
|-------------------------------------3--------|

|----------------------------------------|
|--3----1-----------------------------1--|
|------------3---------0----1----3-------|
|-----------------1----------------------|

|---------------------------------------------|
|--3----5--3----1-----------------------1--3--|
|------------------3---------0----1--3--------|
|-----------------------1---------------------|


1:38
|------------------------------------------|
|--5----3----------------3----1------------|
|------------5-----2--3------------3-------|
|---------------3-----------------------1--|

|------------------------------------------|
|----------------1--3---------2----3----5--|
|-----0--1----3----------3-----------------|
|--1---------------------------------------|

|----------------------------------------------|
|-------1-------1--3/----5----3----------------|
|--3---------3---------------------5-----2--3--|
|-------------------------------------3--------|

|----------------------------------------|
|--3----1-----------------------------1--|
|------------3--------------0----1-------|
|-----------------1----1-----------------|


1:54
|------------------------------------------|
|--5----3----------------3----1------------|
|----------5-----2--3--------------3-------|
|-------------3-------------------------1--|

|------------------------------------------|
|----------------1--3---------2----3----5--|
|-----0--1/2--3----------3-----------------|
|--1---------------------------------------|

|----------------------------------------------|
|-------1-------1--3/----5----3----------------|
|--3---------3---------------------5-----2--3--|
|-------------------------------------3--------|

|----------------------------------------|
|--3----1-----------------------------1--|
|------------3---------0----1----3-------|
|-----------------1----------------------|

|----------------------------------------|
|--3----1-----------------------------1--|
|------------3---------0----1----3-------|
|-----------------1----------------------|


Up tempo  2:13
|----------|-------------|---------|-------------|---------|
|----------|--3--3----3--|--3------|--5--5----5--|--5------|
|----------|-------------|---------|-------------|---------|
|--3-------|-------------|---------|-------------|---------|

|-------------|---------|-------------|
|--3--3----3--|--3------|--5--5----5--|
|-------------|---------|-------------|
|-------------|---------|-------------|

2:23
|----------------------|--------------------|
|--5--3----------------|--3----1------------|
|--------5-------1--3--|------------3-------|
|-----------3----------|-----------------1--|

|----------------------|--------------------|
|----------------1--3--|--5----3------------|
|-----0--1--3----------|------------5-------|
|--1-------------------|-----------------3--|

|---------------------|---------------------|
|-------1-------1-----|--5--3---------------|
|--3-------3-------3--|--------5---------1--|
|---------------------|-------------3-------|

|---------------------|--------------------|
|--3----1-------------|------------1----3--|
|----------3-------0--|--1----3------------|
|---------------1-----|--------------------|

|----------------------|----------------------|
|--3--1----------------|-------1----3----3/4--|
|--------3-------0--1--|--3-------------------|
|-----------1----------|----------------------|

2:37
|------------|-------------|---------|-------------|
|--5---------|--3--3----3--|--3------|-------------|
|------------|-------------|---------|--3--3----3--|
|------------|-------------|---------|-------------|

|---------------------|----------------------|
|-------1-------1-----|--5--3----------------|
|--3-------3-------3--|--------5-----2----3--|
|---------------------|-----------3----------|

|---------------------|----------------------|
|--3----1-------------|------------1----3\4--|
|----------3-------0--|--1----3--------------|
|---------------1-----|----------------------|

2:48
|------------|-------------|---------|-------------|
|--5---------|--3--3----3--|--3------|-------------|
|------------|-------------|---------|--3--3----3--|
|------------|-------------|---------|-------------|

|---------------------|----------------------|
|-------1-------1-----|--5--3----------------|
|--3-------3-------3--|--------5-----2----3--|
|---------------------|-----------3----------|

|---------------------|----------------------|
|--3----1-------------|------------1----3\4--|
|----------3-------0--|--1----3--------------|
|---------------1-----|----------------------|

|---------------------|----------------------|
|--3----1-------------|------------1----3\4--|
|----------3-------0--|--1----3--------------|
|---------------1-----|----------------------|

||----------------------|--------------------|
||*-5--3----------------|--3----1------------|
||*-------5-----2----3--|------------3-------|
||-----------3----------|-----------------1--|

|----------------------|--------------------|---------------------|
|----------------1--3--|--3----2----3----5--|-------1-------1-----|
|-----0--1--3----------|--------------------|--3-------3-------3--|
|--1-------------------|--------------------|---------------------|

|----------------------|---------------------|---------------------||
|--5--3----------------|--3----1-------------|------------1----3--*||
|--------5-----3----5--|----------3-------0--|--1----3------------*||
|-----------3----------|---------------1-----|---------------------||

|----------------------|-------------------|
|--3--1----------------|-------1----3---3--|
|--------3-------0--1--|--3----------------|
|-----------1----------|-------------------|

 3:25
|-----|-----|-----|-----|-----|-----|
|--5--|--3--|--3--|-----|--1--|-----|
|-----|-----|-----|--3--|-----|--5--|
|-----|-----|-----|-----|-----|-----|

|--------|--------|--------------|--------------|
|--3--3--|--3--3--|--3--3--3--3--|--3--3--3--3--|
|--------|--------|--------------|--------------|
|--------|--------|--------------|--------------|

|--0------------------|-------0----1----3--|
|-------3--0----------|--1-----------------|
|------------------1--|--------------------|
|---------------3-----|--------------------|

|----------------------|--0-----------------|
|--3--1----------------|-------3----0-------|
|--------3-------0--1--|--------------------|
|-----------1----------|-----------------3--|

|-------------------------|-------0----1----3--|
|----------------0--3--0--|--1-----------------|
|-------2--3--4-----------|--------------------|
|--3----------------------|--------------------|

|----------------------|--0-----------------|
|--3--1----------------|-------3----0-------|
|--------3-------0--1--|-----------------3--|
|-----------1----------|--------------------|

|-------------------0--|-------0----1----3--|
|-----------0----3-----|--1-----------------|
|-----2--3-------------|--------------------|
|--3-------------------|--------------------|

|----------------------|--0-----------------|
|--3--1----------------|-------3----0-------|
|--------3----------1--|-----------------3--|
|-----------1----1-----|--------------------|

|-------------------------|-------0----1----3--|
|----------------0--3--0--|--1-----------------|
|-------2--3--4-----------|--------------------|
|--3----------------------|--------------------|

|----------------------|--------------------|
|--3--1----------------|-------1----3----3--|
|--------3-------0--1--|--3-----------------|
|-----------1----------|--------------------|

|----------------------|--------------------|
|--3--1----------------|-------1----3----4--|
|--------3-------0--1--|--3-----------------|
|-----------1----------|--------------------|

|--0-------------------|
|-----3--0-------------|
|----------------2--3--|
|-----------3----------|

|-------0----1----3--|----------------------|
|--1-----------------|--3--1----------------|
|--------------------|--------3-------0--1--|
|--------------------|-----------1----------|

|--0-----------------|
|-------3----0-------|
|-----------------3--|
|--------------------|

|-------------------------|-------0----1----3--|
|----------------0--3--0--|--1-----------------|
|-------2--3--4-----------|--------------------|
|--3----------------------|--------------------|

|----------------------|--0-----------------|
|--3--1----------------|-------3----0-------|
|--------3-------0--1--|-----------------1--|
|-----------1----------|--------------------|

|------------------------|-------0----1----3--|
|---------------0--3--0--|--1-----------------|
|-------2--3-------------|--------------------|
|--3---------------------|--------------------|

|---------------------|--0-----------------|
|--3----1-------------|-------3----0-------|
|----------3-------0--|--------------------|
|---------------1-----|-----------------3--|

|----------------------|-------0----1----3--|
|----------------3--0--|--1-----------------|
|-----1--3--4/5--------|--------------------|
|--3-------------------|--------------------|

|-----------------------|--------------------|
|--3----1---------------|------------1----3--|
|------------3-------0--|--1----3------------|
|-----------------1-----|--------------------|

|----------------------|--------------------|-------|
|--3--1----------------|-------1----3----3--|--3h5--|
|--------3-------0--1--|--3-----------------|-------|
|-----------1----------|--------------------|-------|

Return to beginning riff (5:10)
comments
We did not receive enough feedback on this tab! Please rate:
print report bad tab
1 2 3 4 5
I want to post or [tab]
guest
You may want to rate the tab now too:
select rating
Please do not post tabs as comments. Select "correction" instead!