Oops, an error
Loading. Please wait.

Salamander Tab

ver2
ver2

Whole song

More versions @911Tabs.com
1,967 views 3 this week
no commentswrite comment
1 2 3 4 5
excellent!
x 1
Autoscroll
+/-
esc
set tempo
stop
Difficulty
Tuning
intermediate
D G C F A D
Hey! There's an official Ultimate Guitar app which is ideal
for learning songs when you're away from computer. Get the app
WARNING: You are trying to view
                                    content from Ultimate-Guitar.com
                                    in an unauthorized application,
                                    which is prohibited.

                                    Please use an official Ultimate
                                    Guitar Tabs application for iPhone,
                                    iPad or Android to access legitimate
                                    chords, guitar, bass, and drum tabs
                                    from Ultimate-Guitar.com database.

                                    Type "ultimate guitar tabs" in Apple
                                    App Store's or Android Market's
                                    search to find the application.
Gtr I (D A D G A D)
Capo fret 2

Salamander - Jethro Tull 
(From the album "Too Old To Rock and Roll", 1976)

Steve Kingswood 3/11/09 - First tab attempt please feel free to embellish, modify as appropriate.

 3/4
  Gtr I
|-0-----0--------------------0--------------------0---------------------0--|
|-0----(0)-------------------0--------------------0---------------------0--|
|-2----(2)-------------------2--------------------2---------------------2--|
|-0----(0)------0--3p0----0--0------0--3p0-----0--0-------0--3p0-----0--0--|
|-0-----0--0h3---------3-----0--0h3---------3-----0--0h3----------3-----0--|
|-0-----0--------------------0--------------------0---------------------0--|


|-----------------0--0----0----0---0-|---9--9-10--9--9--|--9--9-10--9--9---|
|-----------------0--0----0----0---0-|--10-10-10-10-10--|-10-10-10-10-10---|
|-----------------2--2----2----2---2-|---9--9--9--9--9--|--9--9--9--9--9---|
|-----0--3p0----0-0--3p0--0----0---0-|---0--0--0--0--0--|--0--0--0--0--0---|
|-0h3--------3----0-------3p0--0---0-|------------------|------------------|
|-----------------0------------3p0-0-|------------------|------------------|


|---9--9-10--9--9---9-|---9-10--9--9--0-0-0-0-9--|--0-0-0-0-9--0-0-0-0-9---|
|--10-10-10-10-10--10-|--10-10-10-10--9-9-9-9-9--|--9-9-9-9-9--9-9-9-9-9---|
|---9--9--9--9--9---9-|---9--9--9--9--8-8-8-8-8--|--8-8-8-8-8--8-8-8-8-8---|
|---0--0--0--0--0---0-|---0--0--0--0--9-9-9-9-9--|--9-9-9-9-9--9-9-9-9-9---|
|---------------------|--------------------------|-------------------------|
|---------------------|--------------------------|-------------------------|


|-0-0-0-0-9-|--9--9-10--9--9---9-|--9-10--9--9---9--9-|-10--9--9---9--9-10-|
|-9-9-9-9-9-|-10-10-10-10-10--10-|-10-10-10-10--10-10-|-10-10-10--10-10-10-|
|-8-8-8-8-8-|--9--9--9--9--9---9-|--9--9--9--9---9--9-|--9--9--9---9--9--9-|
|-9-9-9-9-9-|--0--0--0--0--0---0-|--0--0--0--0---0--0-|--0--0--0---0--0--0-|
|-----------|--------------------|--------------------|--------------------|
|-----------|--------------------|--------------------|--------------------|


|---9---9--0--0--0--0--9--0-|--0--0--0--9---0--0--0--0--9---|--0-0-0-0-9---|
|--10--10--9--9--9--9--9--9-|--9--9--9--9---9--9--9--9--9---|--9-9-9-9-9---|
|---9---9--8--8--8--8--8--8-|--8--8--8--8---8--8--8--8--8---|--8-8-8-8-8---|
|---0---0--9--9--9--9--9--9-|--9--9--9--9---9--9--9--9--9---|--9-9-9-9-9---|
|---------------------------|-------------------------------|--------------|
|---------------------------|-------------------------------|--------------|


|-0-0-0-0--0---------------------------|---------------------------5-5-3-3---0-|
|-0-0-0-0--0-0-0-0-0-0-0-----0-0-0-0-0-|-0-----0-0-0-0-0-0-------0-0-0-0-0-0-0-|
|-2-2p0h2--2-4p2p0-5-7-9b9.5r7-5-7-2-5-|-9b9.5r7-5-7-2-5-4-5p4p0-2-5-5-3-3-2-2-|
|-0-0-0-0--0-0-0-0-0-0-0-----0-0-0-0-0-|-0-----0-0-0-0-0-0-------0---------0-0-|
|----------0---------------------------|---------------------------------------|
|----------0---------------------------|---------------------------------------|


|-0--------0--------5--|-5--3--3--|----0--0--|-------0--|---------|
|-0--------0-----0--0--|-0--0--0--|-0--0--0--|-------0--|----0----|
|-2--------2-----2--5--|-5--3--3--|-2--2--2--|-------2--|----2----|
|-3p=0-----0-----0-----|----------|-0--0--3p=|=0-----0--|----0----|
|----------3p=0--------|----------|----------|-------3p=|=0-------|
|----------------------|----------|----------|----------|---------|


|-0--------|----------|--------------|----------|--------------|
|-0--0--0--|-0--0--0--|-0------0--0--|-0--0--0--|-0------0--0--|
|-2--4p=2p=|=0--5--7--|-9b9.5r=7--5--|-7--2--5--|-9b9.5r=7--5--|
|-0--0--0--|-0--0--0--|-0------0--0--|-0--0--0--|-0------0--0--|
|-0--------|----------|--------------|----------|--------------|
|-0--------|----------|--------------|----------|--------------|


|----------|----------|-------5--|-5--3--3--|----0----|
|-0--0--0--|-0--------|----0--0--|-0--0--0--|-0--0----|
|-7--2--5--|-4--5p=4p=|=0--2--5--|-5--3--3--|-2--2----|
|-0--0--0--|-0--------|----0-----|----------|-0--0----|
|----------|----------|----------|----------|---------|
|----------|----------|----------|----------|---------|


|-0--------|-0--------|-5--5--3--|-3-----0--|-0--------|-0---------|
|-0--------|-0-----0--|-0--0--0--|-0--0--0--|-0--------|-0-----0---|
|-2--------|-2-----2--|-5--5--3--|-3--2--2--|-2--------|-2-----2---|
|-3p=0-----|-0-----0--|----------|----0--0--|-3p=0-----|-0-----0---|
|----------|-3p=0-----|----------|----------|----------|-3p=0------|
|----------|----------|----------|----------|----------|-----------|


|-0-0-0-2-4p2p0-5-7-5-7p5p0-4h5p4p0-2-0-0-0-0-0-0-0-0-0-0-0-2-0-2-0-0-0-|
|-2-4-0-0-0-0-0-0-0-0-0-0-0-0-----0-0-0-0-4-2-0-2-4-5-5-4-2-0-0-0-0-0-3-|
|-0-0-0-0-0-0-0-0-0-0-------------0-0-0-0-0-0-0-0-0-0-0-0-0-0-0-0-2-2-2-|
|-----------------------------------------------------------------0-0-0-|
|-----------------------------------------------------------------------|
|-----------------------------------------------------------------------|


|-0--0--0--0--0--0--0--0--|-0--0--0--|-0--0--0--|-0--0--0--|-0--0----|
|-0--0--0--0--1p=0--0--0--|-0--0--3--|-0--0--0--|-0--1p=0--|-0--0----|
|-2--2--2--2--2--2--2--2--|-2--2--2--|-2--2--2--|-2--2--2--|-2--2----|
|-0--0--0--0--0--0--3p=0--|-0--0--0--|-0--0--0--|-0--0--0--|-3p=0----|
|-------------------------|----------|----------|----------|---------|
|-------------------------|----------|----------|----------|---------|


|-0--0--0--|-0--0--0--|-0--0--0--|-0--0--0--|
|-0--0--3--|-0--0--0--|-0--1p=0--|-0--0--0--|
|-2--2--2--|-2--2--2--|-2--2--2--|-2--2--2--|
|-0--0--0--|-0--0--0--|-0--0--0--|-3p=0--0--|
|----------|----------|----------|----------|
|----------|----------|----------|----------|


|-0--0--0--|-0--0--0--|-0--0--0--|-0--0--0-|
|-0--3--0--|-0--0--0--|-1p=0--0--|-0--0--0-|
|-2--2--2--|-2--2--2--|-2--2--2--|-2--2--0-|
|-0--0--0--|-0--0--0--|-0--0--3p=|=0--0--0-|
|----------|----------|----------|---------|
|----------|----------|----------|---------|
					Sal -

|-0--0--0--|-0--0--0--|-0--0--0--|-0--0--0--|-0--0--0--|-0--0--0--|-0--0--0----|
|-0--0--0--|-0--0--0--|-0--0--0--|-0--0--0--|-0--0--0--|-0--0--0--|-0--0--0----|
|-2--0--2--|-0--2--0--|-2--0--2--|-0--2--0--|-2--0--2--|-0--2--0--|-2--0--2----|
|-0--0--0--|-0--0--0--|-0--0--0--|-0--0--0--|-0--0--0--|-0--0--0--|-0--0--0----|
|----------|----------|----------|----------|----------|----------|------------|
|----------|----------|----------|----------|----------|----------|------------|
-	a  -	man     -	der		born		in		

|-0--0--0--|-0--0--0--|-0--0--0--|-0--0--0--|-0--0--0--|-0--0--|
|-0--0--0--|-0--0--0--|-0--0--0--|-0--0--0--|-0--0--0--|-0--0--|
|-0--2--0--|-2--0--2--|-0--2--0--|-2--0--0--|-0--2--0--|-2--0--|
|-0--0--0--|-0--0--0--|-0--0--0--|-0--0--0--|-0--0--0--|-0--0--|
|----------|----------|----------|-------1--|----------|-------|
|----------|----------|----------|----------|----------|-------|
	the	sun	kissed		flame,  who was it lit

|-0--0--0--|-0--3--3--|-3--3--3--|-3--3--3--|-3--3--3--|-3--3--3--|
|-0--0--0--|-0--3--3--|-3--3--3--|-3--3--3--|-3--3--3--|-3--3--3--|
|-2--0--0--|-0--5--3--|-5--3--5--|-3--3--3--|-5--3--5--|-3--5--3--|
|-0--0--0--|-0--3--3--|-3--3--3--|-3--5--3--|-3--3--3--|-3--3--3--|
|-------1--|-1--3--3--|-3--3--3--|-3--3--3--|-3--3--3--|-3--3--3--|
|----------|----3--3--|-3--3--3--|-3--3--3--|-3--3--3--|-3--3--3--|
 your 	candle?	Branded		you	with 	your	name?

|-0---0--0---|-0--0---0--|-0---0--0---|-0--0---0--|-0---0--0---|-----------|
|-0---0--0---|-0--0---0--|-0---0--0---|-0--0---0--|-0---0--0---|-----------|
|-2---0--2---|-0--2---0--|-2---0--0---|-0--2---0--|-2---0--2---|-0--0---0--|
|-2---0--2---|-0--2---0--|-2---0--0---|-0--2---0--|-2---0--2---|-4--5---4--|
|------------|-----------|-----1--1---|-1---------|------------|-0--0---0--|
|------------|-----------|------------|-----------|------------|-----------|
I see you walking by my window,    in your Kensington haze	Sal a	man

|--------0--2--2--|-0------------|--------0--|
|--------0--0--0--|-0------------|--------0--|
|-0--0---0--0--0--|-0--0--0---0--|-0--0---0--|
|-2--0---0--0--0--|-0--4--5---4--|-2--0---0--|
|-0--0---1--1--1--|-1--0--0---0--|-0--0---1--|
|-----------------|--------------|-----------|
  der	burn	      Sal a   man   der  burn	

|-2--2--0--|-----------|--------0--|-2--2--0--|
|-0--0--0--|-----------|--------0--|-0--0--0--|
|-0--0--0--|-0--0---0--|-0--0---0--|-0--0--0--|
|-0--0--0--|-4--5---4--|-2--0---0--|-0--0--0--|
|-1--1--1--|-0--0---0--|-0--0---1--|-1--1--1--|
|----------|-----------|-----------|----------|
	    Sal a  mand  der   burn ----------	

|-0--0--0--|-0--0--0--|-0--0--0--|-0--0--0--|-0--0----|
|-0--0--0--|-0--0--0--|-0--0--0--|-0--0--0--|-0--0----|
|-0--0--0--|-0--0--0--|-0--0--0--|-0--0--0--|-0--2----|
|-0--0--0--|-0--0--0--|-0--0--0--|-0--0--0--|-0--0----|
|-1--0--1--|-0--1--0--|-1--0--1--|-0--0--1--|-0-------|
|----------|----------|----------|----------|---------|
 --------n	for  me  and  I'll  burn  for  you

|-0--------|----------|--------------|----------|--------------|
|-0--0--0--|-0--0--0--|-0------0--0--|-0--0--0--|-0------0--0--|
|-2--4p=2p=|=0--5--7--|-9b9.5r=7--5--|-7--2--5--|-9b9.5r=7--5--|
|-0--0--0--|-0--0--0--|-0------0--0--|-0--0--0--|-0------0--0--|
|-0--------|----------|--------------|----------|--------------|
|-0--------|----------|--------------|----------|--------------|


|----------|----------|-------5--|-5--3--3--|----0----|
|-0--0--0--|-0--------|----0--0--|-0--0--0--|-0--0----|
|-7--2--5--|-4--5p=4p=|=0--2--5--|-5--3--3--|-2--2----|
|-0--0--0--|-0--------|----0-----|----------|-0--0----|
|----------|----------|----------|----------|---------|
|----------|----------|----------|----------|---------|


|-0--------|-0--------|-5--5--3--|-3-----0--|-0--------|-0---------|
|-0--------|-0-----0--|-0--0--0--|-0--0--0--|-0--------|-0-----0---|
|-2--------|-2-----2--|-5--5--3--|-3--2--2--|-2--------|-2-----2---|
|-3p=0-----|-0-----0--|----------|----0--0--|-3p=0-----|-0-----0---|
|----------|-3p=0-----|----------|----------|----------|-3p=0------|
|----------|----------|----------|----------|----------|-----------|


|-0--0--0--|-2--4p=2p=|=0--5--7--|-5--7p=5p=|=0--4h=5p=|=4p=0--2--|
|-2--4--0--|-0--0--0--|-0--0--0--|-0--0--0--|-0--0-----|----0--0--|
|-0--0--0--|-0--0--0--|-0--0--0--|-0--------|----------|----0--0--|
|----------|----------|----------|----------|----------|----------|
|----------|----------|----------|----------|----------|----------|
|----------|----------|----------|----------|----------|----------|


|-0--0--0--|-0--0--0--|-0--0--0--|-0--0--2--|-0--2--0--|-0--0----|
|-0--0--4--|-2--0--2--|-4--5--5--|-4--2--0--|-0--0--0--|-0--3----|
|-0--0--0--|-0--0--0--|-0--0--0--|-0--0--0--|-0--0--2--|-2--2----|
|----------|----------|----------|----------|-------0--|-0--0----|
|----------|----------|----------|----------|----------|---------|
|----------|----------|----------|----------|----------|---------|


|-0--0--0--|-0--0--0--|-0--0--0--|-0--0--0--|-0--0--0--|-0--0--0--|-0--|
|-0--0--0--|-0--1p=0--|-0--0--0--|-0--3--0--|-0--0--0--|-1p=0--0--|-0--|
|-2--2--2--|-2--2--2--|-2--2--2--|-2--2--2--|-2--2--2--|-2--2--2--|-2--|
|-0--0--0--|-0--0--0--|-3p=0--0--|-0--0--0--|-0--0--0--|-0--0--3p=|=0--|
|----------|----------|----------|----------|----------|----------|----|
|----------|----------|----------|----------|----------|----------|----|


|-0--0--0--|-0--0--0--|-0--0--0--|-0--0--0--|
|-0--0--3--|-0--0--0--|-0--1p=0--|-0--0--0--|
|-2--2--2--|-2--2--2--|-2--2--2--|-2--2--2--|
|-0--0--0--|-0--0--0--|-0--0--0--|-3p=0--0--|
|----------|----------|----------|----------|
|----------|----------|----------|----------|


|-0--0--0--|-0--0--0--|-0--0--0--|-0--0--0----|
|-0--3--0--|-0--0--0--|-1p=0--0--|-0--0--0----|
|-2--2--2--|-2--2--2--|-2--2--2--|-2--2--2----|
|-0--0--0--|-0--0--0--|-0--0--3p=|=0--0--0----|
|----------|----------|----------|------------|
|----------|----------|----------|------------|


|-0--0--0--0--0--0--0-----------------------------|
|-0--0--0--0--0--0--0-----------------------------|
|-2--2--2--2--2--2--2--2--2--2--2--2--2-----------|
|-0--3p=0--0--0--0--0--0--0--3p=0--0--0-----------|
|----------3p=0--0--0--------------3--0--0--0--0--|
|----------------3p=0--------------------0--0--0--|


|-0--0--0--|-0--0--0--|-0--------|----------|----------|-----|
|-0--0--0--|-0--0--0--|-0--------|----------|----------|-----|
|-2--2--2--|-2--2--2--|-2--2--2--|-2--2--2--|-2--------|-----|
|-0--3p=0--|-0--0--0--|-0--0--0--|-3p=0--0--|-0--------|-----|
|----------|-3p=0--0--|-0--------|-------3--|-0--0--0--|-0---|
|----------|-------3p=|=0--------|----------|----0--0--|-0---|


|----------|----------|----------|----------|----------|----------|
|----------|----------|----------|----------|----------|----------|
|-2--2--2--|-2--2--2--|----------|-2--2--2--|-2--2--2--|----------|
|-0--0--3p=|=0--0--0--|----------|-0--0--3p=|=0--0--0--|----------|
|----------|----3--0--|-0--0--0--|----------|----3--0--|-0--0--0--|
|----------|----------|-0--0--0--|----------|----------|-0--0--0--|


|------------|
|------------|
|-2--4--5----|
|-0--0--0----|
|-0--0--0----|
|------------|


Tablature Legend
----------------
 h   - hammer-on
 p   - pull-off
 b   - bend
 
comments
We did not receive enough feedback on this tab! Please rate:
print report bad tab
1 2 3 4 5
I want to post or [tab]
guest
You may want to rate the tab now too:
select rating
Please do not post tabs as comments. Select "correction" instead!