Oops, an error
Loading. Please wait.

Thick As A Brick Tab

ver3
ver3

Album

Whole song

Interactive

More versions @911Tabs.com
4,185 views 3 this week
1 commentread comment
1 2 3 4 5
please rate
Autoscroll
+/-
esc
set tempo
stop
Contributor
Difficulty
novice
Hey! There's an official Ultimate Guitar app which is ideal
for learning songs when you're away from computer. Get the app
WARNING: You are trying to view
                                    content from Ultimate-Guitar.com
                                    in an unauthorized application,
                                    which is prohibited.

                                    Please use an official Ultimate
                                    Guitar Tabs application for iPhone,
                                    iPad or Android to access legitimate
                                    chords, guitar, bass, and drum tabs
                                    from Ultimate-Guitar.com database.

                                    Type "ultimate guitar tabs" in Apple
                                    App Store's or Android Market's
                                    search to find the application.
Thick As A Brick by Jethro Tull bass tab is G,D,A,E tuneing 
got lazy at the end it should all be 100% right this it long long i almost fell asleep tabin lol kidding 

Rate it 

 
        repeat 4X's
|------------------------|-------------------------|
|----3------0------------|--3----2----0------------|
|----------------1--1----|-----------------1--1----|
|------------------------|-------------------------|



   repeat 3X's
|--------------------|----------------------||---------------------|
|*-------------------|--3----3----3-5-3----*||---------------------|
|*--1----0-1-3----3--|-----3----3----------*||--3----3----3-5-3----|
|--------------------|----------------------||-----3----3----------|



---------------|--------------|------------------------|
---------------|--------------|------------------------|
--3------------|--------------|-------------------1----|
---------------|--------------|--------------1---------|


                                      repeat 10X's
------------------------||------------------------0---------||
------------------------||*-----0--1--0--1--3--1--------0--*||
-------------------1----||*--3-----------------------1-----*||
--------------1---------||----------------------------------||



--------------------------------|--------------------------------|
----1--1----1--1--1-1-1--1-1-1--|----3--3----3--3--3-3-3--3-3-3--|
--------------------------------|--------------------------------|
--------------------------------|--------------------------------|


 
------------------------------------|
--5-5-5-5-5--5-5-5-5-5--3--3--6--6--|
------------------------------------|
------------------------------------|


 
--------------------------------------|
--5-5-5-5-5--5-5-5-5-5--5-5-5--5-5-5--|
--------------------------------------|
--------------------------------------|



--------------------------------|--------------------------------|
----1--1----1--1--1-1-1--1-1-1--|----3--3----3--3--3-3-3--3-3-3--|
--------------------------------|--------------------------------|
--------------------------------|--------------------------------|



----------------------------|----------------------------|
--5--5----3------------5----|--3--3----1------------3----|
---------------3--3---------|---------------1--1---------|
----------------------------|----------------------------|


 
----------------------------|-------------------------------|
----------------------------|-------------------------------|
--6--6----4------------6----|--4--4--4--4--4--4--4--4/-8\---|
---------------4--4---------|-------------------------------|


        repeat  13X's
|------------------------0---------||
|*-----0--1--0--1--3--1--------0--*||
|*--3-----------------------1-----*||
|----------------------------------||



-----------------------------------|
----------------------7------------|
--8--7--8--10--8--10-----10--8--7--|
-----------------------------------|



-----------------------------------|
--7------7--8--7--8--10--8--7------|
-----10------------------------10--|
-----------------------------------|



-----------------------------------|
----------------------7------------|
--8--7--8--10--8--10-----10--8--7--|
-----------------------------------|



-----------------------------------|
--7------7--8--7--8--10--8--7------|
-----10------------------------10--|
-----------------------------------|


 
-------------7------7--9--7---------|
--10--9--10-----10-----------10--9--|
------------------------------------|
------------------------------------|



-----------------------------------|
-----------------------------------|
--7------7--8--7--8--10--8--7------|
-----10------------------------10--|


 
-------------7------7--9--7---------|
--10--9--10-----10-----------10--9--|
------------------------------------|
------------------------------------|



-------------------------------------|---------------------|
--------------------------------7----|---------------------|
--10--10--10--10--10--10--10---------|---------------------|
-------------------------------------|--6------6--6--------|


 
---------------------|-------------------|------------------|
---------------------|-------------------|------------------|
---------------------|--3----------------|------------------|
--1------1--1--------|-------------------|------------------|



------------------------|------------------------|
------------------------|------------------------|
-------------------1----|-------------------1----|
--------------1---------|--------------1---------|



--------------------------------|--------------------------------|
----1--1----1--1--1-1-1--1-1-1--|----3--3----3--3--3-3-3--3-3-3--|
--------------------------------|--------------------------------|
--------------------------------|--------------------------------|


 
------------------------------------|
--5-5-5-5-5--5-5-5-5-5--3--3--6--6--|
------------------------------------|
------------------------------------|


 
--------------------------------------|
--5-5-5-5-5--5-5-5-5-5--5-5-5--5-5-5--|
--------------------------------------|
--------------------------------------|



--------------------------------|--------------------------------|
----1--1----1--1--1-1-1--1-1-1--|----3--3----3--3--3-3-3--3-3-3--|
--------------------------------|--------------------------------|
--------------------------------|--------------------------------|

repeat 3X's
 
------------------------------------|
--5-5-5-5-5--5-5-5-5-5--3--3--6--6--|
------------------------------------|
------------------------------------|


 
--------------------|---------------------|-------------------|
--------------------|---------------------|-------------------|
--------------------|---------------------|-------------------|
--------------10\---|--3------------10\---|--3----------------|


 
--------------------|--------------------|--------------------|
--5------------3----|--5------------3----|--------------------|
--------------------|--------------------|--1------------1----|
--------------------|--------------------|--------------------|


 
--------------------|--------------------|--------------------|
--------------------|--------------------|--------------------|
--3------------3----|--3------------3----|--5------------5----|
--------------------|--------------------|--------------------|


 
--------------------|----------------------|--------------------|
--3------------3----|--5------3--5----3----|--------------------|
--------------------|----------------------|--1--------3--------|
--------------------|----------------------|--------------------|


 
----------------------|--------------------|--------------------|
----------------------|--5------------3----|--5------------3----|
--5----5----5----5----|--------------------|--------------------|
----------------------|--------------------|--------------------|


 
--------------------|--------------------|--------------------|
--------------------|--------------------|--------------------|
--1------------1----|--3------------3----|--3------------3----|
--------------------|--------------------|--------------------|


 
--------------------|--------------------|----------------------|
--------------------|--3------------3----|--5------3--5----3----|
--5------------5----|--------------------|----------------------|
--------------------|--------------------|----------------------|


 
--------------------|----------------------|------------------|
--------------------|----------------------|------------------|
--1--------3--------|--5----5----5----5----|------------------|
--------------------|----------------------|------------------|


 
--------------------|--------------------|--------------------|
--5------------3----|--5------------5----|--3------------3----|
--------------------|--------------------|--------------------|
--------------------|--------------------|--------------------|


 
--------------------|--------------------|--------------------|
--------------------|--5------------3----|--5------------5----|
--3--------5--------|--------------------|--------------------|
--------------------|--------------------|--------------------|



--------------------|--------------------|-----------------------|
--3-----------------|--------------------|--5----5---5-5----3----|
-----------6--------|--3--------5--------|-----------------------|
--------------------|--------------------|-----------------------|


 
------------------------|--------------------|--------------------|
--5---5-5---5-5----5----|--3-----------------|--------------------|
------------------------|-----------6--------|--3--------5--------|
------------------------|--------------------|--------------------|


 
---------------------|---------------------|----------------------|
--5---3--------------|--3---1--------------|--5------5--3------3--|
----------5----------|----------1----------|----------------------|
---------------------|---------------------|----------------------|



----------------------|--------------------------|
--5------5--3------3--|-----7-----7-----8-----8--|
----------------------|--5-----5-----6-----6-----|
----------------------|--------------------------|



----------------------|----------------------|
----------------------|----------------------|
--3---3--5-6----------|--1---1--3-4----------|
----------------------|----------------------|



---------------------------|---------------------------|
--5---5-5------3--3-----3--|--5---5-5------3--3-----3--|
-----------5--------3-5----|-----------5--------3-5----|
---------------------------|---------------------------|



---------------------------|---------------------------|
--5---5-5------3--3-----3--|--5---5-5------3--3-----3--|
-----------5--------3-5----|-----------5--------3-5----|
---------------------------|---------------------------|


 
---------------------------|---------------5--7-5-------|
--5---5-5------------3---3-|--5---5-5--8----------8-5---|
-----------------3-5---5---|--------------------------8-|
--------------6------------|----------------------------|


             repeat 1X's
----------------------------------------------------|
--5---5-5-------------3----5---5-5--8---5-----------|
----------------3--5-----------------------8-5---5--|
--------------6--------------------------------8----|




----------------------------|----------------------------|
--5---5-5--8-5--------------|--5---5-5-3------------3----|
----------------8--5---5-8--|------------5------3-5---5--|
---------------------8------|----------------6-----------|


 
----------------------------|---------------------------|
--5---5-5-3------------3----|--5---5-5-3-------------3--|
------------5------3-5---5--|------------5------3-5-----|
----------------6-----------|--------------6------------|


 
--------------------------|----------------5-7-5------|
--5---5-5------------3-5--|--5---5-5----8--------8----|
-----------------3-5------|------------------------8--|
--------------6-----------|---------------------------|


 
---------------------------|----------------------------|
--5---5-5--3------------3--|--5---5-8--5----------------|
-------------5------3-5----|---------------8--5-----5-8-|
------------------6--------|--------------------6-8-----|


 
----------------------------|---------------5-----------|
--5---5-3--------------3-5--|--5---5-5--8------8-5---5--|
-----------5-3-----3-5------|----------------------8----|
----------------6-----------|---------------------------|



-----------------------------|---------------------------|
--5---5-5--8-5---------------|--5---5-5------------------|
----------------8--5-----5-8-|-----------------------5-8-|
---------------------8-6-----|-----------6---8---6-8-----|



---------------------------|---------------------------|
--5---5-5------------------|--5---5-5------------------|
------------------5-8-5-8--|------------------5-8-5-8--|
-----------6---8-----------|-----------6---8-----------|



---------------5--7-5-------|-------------5----------------|
--5---5-5--8----------8-5---|--5---5-5--8----8-5-----------|
--------------------------8-|--------------------8-5---5-8-|
----------------------------|------------------------8-----|


 
------------5-7-7-5--------------|------5-7-7-5---------------|
--5-5-5-5-8---------8-5--5---5-8-|--5-8---------8-5---5-------|
---------------------------8-----|------------------8---------|
---------------------------------|----------------------------|



---------------------------|---------------------------|
--5---5-5------3--3-----3--|--5---5-5------3--3-----3--|
-----------5--------3-5----|-----------5--------3-5----|
---------------------------|---------------------------|



---------------------------|---------------5---7-5-----|
--5---5-5------3--3-----3--|--5---5-5--8-----------8---|
-----------5--------3-5----|-------------------------8-|
---------------------------|---------------------------|


    repeat 3X's
-----------------------------------------------------|
--5---5-5--8---5-------------5---3------------3---3--|
------------------8-5---5----------------3--5---5----|
----------------------8--------------6---------------|



---------------------------|-------------------|--------------------|
--5---5-5--5-3-------------|-------------------|--------------------|
---------------5----5--3---|-------------------|--------------------|
-------------------------1-|--3----------------|--------------10\---|


 
---------------------|-------------------|--------------------|
---------------------|-------------------|--5------------3----|
---------------------|-------------------|--------------------|
--3------------10\---|--3----------------|--------------------|


 
--------------------|--------------------|--------------------|
--5------------5----|--3------------3----|--------------------|
--------------------|--------------------|--3--------5--------|
--------------------|--------------------|--------------------|


 
--------------------|--------------------|--------------------|
--5------------3----|--5------------5----|--3-----------------|
--------------------|--------------------|-----------6--------|
--------------------|--------------------|--------------------|


 
--------------------|--------------------|--------------------|
--------------------|--5------------3----|--5------------5----|
--3--------5--------|--------------------|--------------------|
--------------------|--------------------|--------------------|



--------------------|--------------------|---------------------|
--3-----------------|--------------------|--5---3--------------|
-----------6--------|--3--------5--------|----------5----------|
--------------------|--------------------|---------------------|



---------------------|----------------------|----------------------|
--3---1--------------|--5------5--3------3--|--5------5--3------3--|
----------1----------|----------------------|----------------------|
---------------------|----------------------|----------------------|


 
--------------------------|----------------------|--------------|
-----7-----7-----8-----8--|----------------------|--------------|
--5-----5-----6-----6-----|--3---3--5-6----------|--1---1--3-4--|
--------------------------|----------------------|--------------|


 
--------------------------|---------------------------|
-----5-6---5-6---5-6-8-6--|--6---5-6---5-6---5-6-8-6--|
--------------------------|---------------------------|
--------------------------|---------------------------|



--7--5--------------------|--------------------------|
--------8--7-----5--7--8--|--7--5--------------------|
--------------8-----------|--------7--5-----5--7--8--|
--------------------------|--------------8-----------|



----------------------|-------------------|
----------------------|-------------------|
--5----3--------------|-------------------|
------------6----4----|--3----------------|


|--3------2------|
|----------------|
|----------------|
|----------------|

 
------------------|--3------2------|------------------|
--5------5-3-2----|----------------|--5------5-3-2----|
------------------|----------------|------------------|
------------------|----------------|------------------|


 
-----4--5--7--5--4--|-----2--4--5--4--2--|--------2--4--2-----|
--7-----------------|--5-----------------|--3--5-----------5--|
--------------------|--------------------|--------------------|
--------------------|--------------------|--------------------|



---------------|----------------|---------------|--------------------|
--2------------|--5-------------|---------------|--------------------|
---------------|---------8------|---------------|----5-7------5-7----|
---------------|----------------|--8------------|--8--------8--------|



--------------------|----------------|---------------|
--------------------|--5------3------|---------------|
----5-7------5-7----|----------------|--3------------|
--8--------8--------|----------------|---------------|


 
--------------------|--------------------|--5------3------|
----2-4------2-4----|----2-4------2-4----|----------------|
--5--------5--------|--5--------5--------|----------------|
--------------------|--------------------|----------------|



---------------|----2-4------2-4----|----2-4------2-4----|
--3------------|--5--------5--------|--5--------5--------|
---------------|--------------------|--------------------|
---------------|--------------------|--------------------|



--5------3------|--2------------|------------7/---7----|
----------------|---------------|--5----5/-------------|
----------------|---------------|----------------------|
----------------|---------------|----------------------|


 
----------------------|----------------------|----------------------|
--5----5--------------|------------7/---7----|------------7----7----|
------------5----5----|--5----5/-------------|--5----5--------------|
----------------------|----------------------|----------------------|


 
------------7/---7----|----------------------|----------------------|
--5----5/-------------|--5----5--------------|------------7/---7----|
----------------------|------------5----5----|--5----5/-------------|
----------------------|----------------------|----------------------|


 
----------------------|----------------------|----------------------|
------------7----7----|------------5/---5----|------------5----5----|
--5----5--------------|--3----3/-------------|--3----3--------------|
----------------------|----------------------|----------------------|


 
----------------------|----------------------|------------5/---5----|
------------7/---7----|------------7----7----|--3----3/-------------|
--5----5/-------------|--5----5--------------|----------------------|
----------------------|----------------------|----------------------|


 
----------------------|------------7/---7----|--5---5---------------|
--3----3--------------|--5----5/-------------|------------7---7-----|
------------3----3----|----------------------|----------------------|
----------------------|----------------------|----------------------|



--------------------------------|--------------------------------|
--0---0-0---0-0-----------------|--------------5--3--------------|
-----------------3--0--------0--|--3---3-3---3-------5--3--------|
-----------------------1--3-----|--------------------------5--3--|



----------------------------|------------------------|
----------------------------|--5--5----5--3--3----3--|
----------------------------|------------------------|
--5---5-5---5-5--3--5--5----|------------------------|



--------------------------------|--------------------------------|
--0---0-0---0-0-----------------|--------------5--3--------------|
-----------------3--0--------0--|--3---3-3---3-------5--3--------|
-----------------------1--3-----|--------------------------5--3--|



----------------------------|------------------------|
----------------------------|--5--5----5--3--3----3--|
----------------------------|------------------------|
--5---5-5---5-5--3--5--5----|------------------------|


 
----------------------|----------------------|----------------------|
------------5/---5----|------------5----5----|------------7/---7----|
--3----3/-------------|--3----3--------------|--5----5/-------------|
----------------------|----------------------|----------------------|


 
----------------------|------------5/---5----|----------------------|
------------7----7----|--3----3/-------------|--3----3--------------|
--5----5--------------|----------------------|------------3----3----|
----------------------|----------------------|----------------------|



------------7/---7----|--5--5----5-------------|
--5----5/-------------|-------------7--7----7--|
----------------------|------------------------|
----------------------|------------------------|



--------------------------------|--------------------------------|
--0---0-0---0-0-----------------|--------------5--3--------------|
-----------------3--0--------0--|--3---3-3---3-------5--3--------|
-----------------------1--3-----|--------------------------5--3--|



----------------------------|------------------------|
----------------------------|--5--5----5--3--3----3--|
----------------------------|------------------------|
--5---5-5---5-5--3--5--5----|------------------------|



--------------------------------|--------------------------------|
--0---0-0---0-0-----------------|--------------5--3--------------|
-----------------3--0--------0--|--3---3-3---3-------5--3--------|
-----------------------1--3-----|--------------------------5--3--|



----------------------------|------------------------|
----------------------------|--5--5----5--3--3----3--|
----------------------------|------------------------|
--5---5-5---5-5--3--5--5----|------------------------|


 
----------------------|----------------------|----------------------|
------------5/---5----|------------5----5----|------------7/---7----|
--3----3/-------------|--3----3--------------|--5----5/-------------|
----------------------|----------------------|----------------------|


 
----------------------|------------5/---5----|----------------------|
------------7----7----|--3----3/-------------|--3----3--------------|
--5----5--------------|----------------------|------------3----3----|
----------------------|----------------------|----------------------|



------------7/---7----|--5--5----5-------------|
--5----5/-------------|-------------7--7----7--|
----------------------|------------------------|
----------------------|------------------------|


              repeat 4X
|---------2--0------------------------------------0----2-----||
|*--0---0-------3--0----------------------------------------*||
|*--------------------3--0------------3---3-3---3-----------*||
|---------------------------3--1--3--------------------------||


 
----------------------|----------------------|----------------------|
------------7/---7----|------------7----7----|------------5/---5----|
--5----5/-------------|--5----5--------------|--3----3/-------------|
----------------------|----------------------|----------------------|


 
----------------------|------------7/---7----|----------------------|
------------5----5----|--5----5/-------------|--5----5--------------|
--3----3--------------|----------------------|------------5----5----|
----------------------|----------------------|----------------------|


 
------------9/---9----|----------------------|----------------------|
--7----7/-------------|--7----7--------------|------------7/---7----|
----------------------|------------7----7----|--5----5/-------------|
----------------------|----------------------|----------------------|


 
----------------------|----------------------|----------------------|
------------7----7----|------------5/---5----|------------5----5----|
--5----5--------------|--3----3/-------------|--3----3--------------|
----------------------|----------------------|----------------------|


 
------------7/---7----|----------------------|------------9/---9----|
--5----5/-------------|--5----5--------------|--7----7/-------------|
----------------------|------------5----5----|----------------------|
----------------------|----------------------|----------------------|


 
----------------------|----------------------|----------------------|
--7----7--------------|----------------------|----------------------|
------------7----7----|--3--3----------------|--6--6------3--3------|
----------------------|------------5--5------|----------------------|



----------------------|----------------------|
----------------------|----------------------|
--4--4----------------|--6----6----6----6----|
------------6--6------|----------------------|


         repeat 3X's
--------------------------------------------------|
--5--5--5--3--3--3---------------4------7/---7----|
--------------------3------5--7-------------------|
--------------------------------------------------|



 
--5--5--5--3--3--3-----------|--------4---------4--6------|
--------------------3--------|--5--7---------7------------|
-----------------------------|----------------------------|
-----------------------------|----------------------------|


 
-------------------|--------------------|-------------------|
-------------------|---------------4----|-------------------|
-------------------|--------------------|--5----------------|
--7----------------|----------7---------|-------------------|


----------------------|--------------------------|
----------------------|--------------------------|
--3---3---------------|--5---5-5---5-5---5-5---5-|
------------5---5-----|--------------------------|


--------------------------|--------------------------|
--------------------------|--------------------------|
--3---3-3---3-3---3-3---3-|--------------------------|
--------------------------|--5---5-5---5-5---5-5---5-|


------------------------|--------------------------|
--5--5----5--3--3----3--|--------------------------|
------------------------|--5---5-5---5-5---5-5---5-|
------------------------|--------------------------|


--------------------------|--------------------------|
--------------------------|--------------------------|
--3---3-3---3-3---3-3---3-|--------------------------|
--------------------------|--5---5-5---5-5---5-5---5-|


------------------------|----------------------|
--5--5----5--3--3----3--|------------5/---5----|
------------------------|--3----3/-------------|
------------------------|----------------------|

 
----------------------|----------------------|----------------------|
------------5----5----|------------7/---7----|------------7----7----|
--3----3--------------|--5----5/-------------|--5----5--------------|
----------------------|----------------------|----------------------|

 
------------5/---5----|----------------------|------------7/---7----|
--3----3/-------------|--3----3--------------|--5----5/-------------|
----------------------|------------3----3----|----------------------|
----------------------|----------------------|----------------------|


--5---5---------------|---------------5--------|
------------7---7-----|--7----7----8-----------|
----------------------|------------------------|
----------------------|------------------------|

 
---------------5--------|--5----------------------|
--7----7----8-----------|-------8----7------------|
------------------------|-----------------8--8----|
------------------------|-------------------------|


---------------5--------|----5--5--5----5--7--5----------|
--7----7----8-----------|------------------------8--7----|
------------------------|--------------------------------|
------------------------|--------------------------------|

 
----5--5--5----5--7--5----------|----5--5--5----5--7--5-------------|
------------------------8--7----|------------------------8--7----8--|
--------------------------------|-----------------------------------|
--------------------------------|-----------------------------------|


----------------------|---------------5--------|
--7-----5-------------|--7----7----8-----------|
------8----8----------|------------------------|
----------------------|------------------------|

 
---------------5--------|--5----------------------|
--7----7----8-----------|-------8----7------------|
------------------------|-----------------8--8----|
------------------------|-------------------------|


---------------5--------|----5--5--5----5--7--5----------|
--7----7----8-----------|------------------------8--7----|
------------------------|--------------------------------|
------------------------|--------------------------------|


----5--5--5----5--7--5----------|----5--5--5----5--7--5-------------|
------------------------8--7----|------------------------8--7----8--|
--------------------------------|-----------------------------------|
--------------------------------|-----------------------------------|

 
----------------------|-----------------------------|
--7-----5-------------|-------------------8---7-5---|
------8----8----------|--8--8-8-8--8-8-8----------6-|
----------------------|-----------------------------|

      repeat 4X's
-------------------5--------------------------------------|
-----------------------8-7----------------------8---7-5---|
--8--8-8-8--8-8-8----------8---8--8-8-8--8-8-8----------6-|
----------------------------------------------------------|



-------------------5---------|-------------------------------|
-----------------------8-7---|-------------------------------|
--8--8-8-8--8-8-8----------8-|--6--6-6-6-------------5-----8-|
-----------------------------|------------6-6-6--6-8---8-6---|


-----------------------------5-|-------------------------------|
---------------------5-7-5-----|------------5-5-5--5-7-8-7-5---|
------------8-8-8--8-------8---|--6--6-6-6-------------------5-|
--6--6-6-6---------------------|-------------------------------|


-------------------5---------|-------------------5---------|
-----------------------8-7-5-|-----------------------8-7---|
------------8-8-8------------|------------8-8-8----------8-|
--8--8-8-8-------------------|--8--8-8-8-------------------|


-------------------------------|-----------------------------5-|
-------------------------------|---------------------5-7-5-----|
--6--6-6-6-------------5-----8-|------------8-8-8--8-------8---|
------------6-6-6--6-8---8-6---|--6--6-6-6---------------------|


-------------------------------|-------------------5---------|
------------5-5-5--5-7-8-7-5---|-----------------------8-7-5-|
--6--6-6-6-------------------5-|------------8-8-8------------|
-------------------------------|--8--8-8-8-------------------|


-------------------5---------|-------------------------|
-----------------------8-7---|--5---5-5----5-5--5-5----|
------------8-8-8----------8-|-------------------------|
--8--8-8-8-------------------|-------------------------|


---------------------------|-----------------------------|
----------------3---3---3--|--5---5-5---3-5-5-5-5-5-3----|
--3---3-3-----5---5---5----|--------------------------5--|
---------------------------|-----------------------------|

 
---------------------------|------------------------|
----------------3---3---3--|--5---5-5----5---5-5----|
--3---3-3-----5---5---5----|------------------------|
---------------------------|------------------------|


------------------------|------------------------|
------------------------|------------------------|
--6---6-6----6---6-6----|--3---3-3----3---3-3----|
------------------------|------------------------|


------------------------|-------------------3-5----|
------------------------|--5----------3-5-3-----5--|
--5---5-5----5---5-5----|-----------3--------------|
------------------------|--------------------------|

           repeat 7X's
------------------------------------------------5---------
-------------------8---7-5--------------------------8-7---
--8--8-8-8--8-8-8----------6---8--8-8-8--8-8-8----------8-
----------------------------------------------------------


|------------------------------------------------------------5-
|----------------------------------------------------5-7-5-----
|--6--6-6-6-------------5-----8-------------8-8-8--8-------8---
|------------6-6-6--6-8---8-6-----6--6-6-6---------------------

|-------------------------------------------------5---------
|-----------5-5-5--5-7-8-7-5--------------------------8-7-5-
|-6--6-6-6-------------------5-------------8-8-8------------
|--------------------------------8--8-8-8-------------------



|-------------------5----------------------------------------
|-----------------------8-7----------------------------------
|------------8-8-8----------8---6--6-6-6-------------5-----8-
|--8--8-8-8-------------------------------6-6-6--6-8---8-6---


|-----------------------------5--------------------------------
|---------------------5-7-5-----------------5-5-5--5-7-8-7-5---
|------------8-8-8--8-------8-----6--6-6-6-------------------5-
|--6--6-6-6----------------------------------------------------



|-------------------5----------------------------5---------
|-----------------------8-7-5------------------------8-7---
|------------8-8-8------------------------8-8-8----------8-
|--8--8-8-8---------------------8--8-8-8-------------------


      repeat 4X's
|------------------------------------------------5---------
|-------------------8---7-5--------------------------8-7---
|--8--8-8-8--8-8-8----------6---8--8-8-8--8-8-8----------8-
|----------------------------------------------------------


|--7--7--7--7--7--7------------------
|--------------------5----------5----
|-------------------------3--5-------
|------------------------------------

 
|--7--7--7--7--7--7-----------------------------------------------
|--------------------5----------5-----------------------8---7-5---
|-------------------------3--5---------8--8-8-8--8-8-8----------6-
|-----------------------------------------------------------------


|-------------------5-----------7--7--7--7--7--7------------------
|-----------------------8-7-----------------------5----------5----
|--8--8-8-8--8-8-8----------8--------------------------3--5-------
|-----------------------------------------------------------------

|--7--7--7--7--7--7-----------------------------------------------
|--------------------5----------5-----------------------8---7-5---
|-------------------------3--5---------8--8-8-8--8-8-8----------6-
|-----------------------------------------------------------------


|-------------------5---------||--------------------------
|-----------------------8-7---||*-------------------------
|--8--8-8-8--8-8-8----------8-||*-------1----3------------
|-----------------------------||---1----------------------


 13x in the *  *
            *  *
--------------------------||-------------------------
-------------------------*||-------------------------
------------1------------*||-------1----3------------
--1----1------------------||--1----------------------
comments
We did not receive enough feedback on this tab! Please rate:
print report bad tab
1 2 3 4 5
1 comment total.
+1 reply
benonbass1 wrote on January 10 2009, 11:46 am

Why is this stated as a Guitar Tab???

I want to post or [tab]
guest
You may want to rate the tab now too:
select rating
Please do not post tabs as comments. Select "correction" instead!