Oops, an error
Loading. Please wait.

All Along The Watchtower Bass Tab

ver3
ver3

Whole song

Interactive

More versions @911Tabs.com
11,267 views 39 this week
1 commentread comment
1 2 3 4 5
excellent!
x 2
add to favorites launch autoscroll
font size
0
reset
Autoscroll
+/-
esc
set tempo
stop
Contributor
WARNING: You are trying to view
                                    content from Ultimate-Guitar.com
                                    in an unauthorized application,
                                    which is prohibited.

                                    Please use an official Ultimate
                                    Guitar Tabs application for iPhone,
                                    iPad or Android to access legitimate
                                    chords, guitar, bass, and drum tabs
                                    from Ultimate-Guitar.com database.

                                    Type "ultimate guitar tabs" in Apple
                                    App Store's or Android Market's
                                    search to find the application.
                           All Along the Watchtower                             

                                Jimi Hendrix
1/2 Step Down (D#G#C#F#)



      H        E  E  E  E     E  E  Q    E  E  E  E     E  E  Q    E  E  E  E   
F#||--------------4--4--6--|--6--6--6-------4--4--2--|--2--2--2-------4--4--6--|
C#||-----------------------|-------------------------|-------------------------|
G#||-----------------------|-------------------------|-------------------------|
D#||-----------------------|-------------------------|-------------------------|


  E  E  Q    E  E  E  E     E  S S E  S S E  E  E  E   
--6--6--6-------4--4--2--|--2-------------------------|
-------------------------|----------------------------|
-------------------------|----------------------2--3--|
-------------------------|-----0-0-2--3-3-3--4--------|


  Q    E.  S E  E  E  S S    E  E  E.  S E  E  E  E   
--------------------------|--------------------------|
--------------------------|--------------------------|
--4----4-----2--2--L--x-2-|--------------------2--3--|
-----------2--------------|--5--0--2---2-3--4--------|


  E  E  E.  S E  E  S S E     E   E   Q    E  E  E  E   
--------------------4-4-2--|---------------------------|
-----------------4---------|---------------------------|
--4--4--4---0-2------------|---------------------2--3--|
---------------------------|--5--(0)--2----3--4--------|


  E.  S E.  S E  E  E  E     H        S S S S S S E   
--------------------------|-----------2--------------|
------------4-------------|--------------------------|
--4-----------2--2--L--2--|--0------------2-2-2-2-3--|
--------------------------|--------------------------|


  Q    E.  S E  E  S S E     E  E  E.  S S S E  S S S S  
--------------------------|-----------------------------|
-----------4---------4----|--------------7--------------|
--4----L-----2--2--L---2--|------------7-----2--2-2-3-3-|
--------------------------|--5--5--L--------------------|


  E  E  E  E  E  E  S S E     E  E  S S S S   E  S S S S S S  
---------------------------|---------------------------------|
----------------------4----|----------------7g9--------------|
--4--4--L--4--2--2--L---2--|---------------------------------|
---------------------------|--5--5--5-5-5-5------7-7-7-7-8-8-|


  Q    E.  S E  E  S  S   S    S       E  S S S S S S E  E  S S E   
----------------------------------|--------------------------------|
----------------------------------|--2g4--4-4-4-4-4-4-2--2---------|
-----------9----------------------|---------------------------x-2--|
--9----L-----7--7--L-(0)-(5)p-(0)-|--------------------------------|


  Q    E.  S E  E  E  E     E  S S Q    E   S S S S     E   
-------------------------|--------------9------------------|
-------------------------|-----------------11-9-L----------|
--4----L-----2--2--L--2--|------------------------9-10g11--|
-----------0-------------|--5--5-5-5-----------------------|


  Q    E.  S E  E  S S E     Q    S S S S E  E  E  S S  
--------------------------|----------------------------|
---------------------4----|---------7------------------|
-------------2--2--L---2--|-------7---7-7-7------------|
--9----L---0--------------|--5---------------7--7--0-8-|


  Q    E.  S E  E  E    E     E  E  S E.  E   S S S S  S  S  
---------------------------|--------------9-----------------|
---------------------------|-----------------11-9-----------|
---------------------------|------------------------9-10-11-|
--9----9---0-7--7--x--7g5--|--5--5--5-----------------------|


  Q    E.  S E  E  E   S S     S  S  S  S  S  S  S S S S E   E   S  S  
---------------------------|-----------------------9-L-9-9--12--13-13-|
----------------------11-9-|--11-11-11-11-11-11-----------------------|
---------------------------|--------------------10--------------------|
--9----L---5-7--7--7-------|------------------------------------------|


  E  E  E  E  E  E  E   E      E   S   S  S S S S S  S S S  S S E   
--6-----------4-------------|-----------------------------------4--|
-----6-----6-----4--L-------|---------------------2S-4-4-4S-6-6----|
--------4--------------(0)--|-------------------4------------------|
----------------------------|--5--(0)-(0)-5-5----------------------|


  E  E  E  E  S S E  E  E     E  S S E  S S E  S S S S S S  
--6-----------4-4----------|-------------------------------|
-----6-----6------4-----4--|------------7-7-7--------------|
--------4------------2-----|-------------------------------|
---------------------------|--5--0-0-5---------7-7-7-7-7-9-|


  E  S S S S E  E  S S S S E     E  E  E  E   E  S S  S S  E   
---------6-------------4------|------------------4-4h-6-------|
-----6-6-----6-----4-4-----4--|-----------7S--6---------4h-6--|
--4-------------2-------------|-------------------------------|
------------------------------|--5--0--5----------------------|


  E  E  E  E  E  E  E  E     E  S S E  S S E  S  S  E  S.  T   
-----6-----------4--------|-----------------------------------|
--------6-----------4-----|------------7-7-9------------------|
--4--------4--2--------2--|-------------------9-10-11---------|
--------------------------|--5--0-0-5------------------9S-(5)-|


  E  E  E.  S E  E  S S E     E  E  Q    E   S S S S  S  S  
---------------------------|-------------9-----------------|
----------------------4----|----------------11-9-L---------|
--4--4------0-2--2------2--|-----------------------9-10-11-|
---------------------------|--5--5-------------------------|


  E  E  S S S S E  E  S S E     E  E  E  E  S  S S S  S S S S  
----------9------------------|--------------------------------|
-----------------------------|-----------7--7S-9--------------|
-----------------------------|---------------------7S-9-9-----|
--9--9------9-9-7--7----0-5--|--5--5--L-------------------7-8-|


  E  E  S S E  E  E  S S E     E  E  E   S S E  E  S S S S  
----------------------------|-----------11-----------------|
----------------------------|--------------9-6--7--9-9-----|
----------------------------|------------------------------|
--9--9----0-9--7--7----0-7--|--5--5--------------------7-8-|


  E  E  E.  S E  E  S S E       Q    E  S S S S E  E  S S  
---------------------------|------------------------------|
---------------------------|------------------------------|
----------------------7----|--7g9----7--7-7---------------|
--9--9------9-7--7------7--|----------------9-7-7--7--7-7-|


  E  E  E  E  E  E  E  S S    H        E   S S   S S  E   
---------------------------|-----------9-----------------|
-----------------------9---|--------------11-9h-11-9-----|
---------------------------|-------------------------11--|
--9--9--L--5--7--7--L----7-|--5--------------------------|


  Q    E.  S E  E  S S  E     Q    E.   S  E  E  S S  S S  
---------------------------|------------------------------|
---------------------------|---------------4--4--L--------|
---------------------------|-----------------------2h-4-2-|
--9----L---0-7--7--L-0h-7--|--5----L---(x)----------------|


  E  E  E  S S E  E  S S E     Q    S S S S E  S S S S E   
--------6--------------4----|-----------------------------|
---------------------4---4--|-------7---7-----------------|
--4--4-------0-2--2---------|------------------2-2-2-2-3--|
----------------------------|--5--------------------------|


  H        E  E  Q        S  S  S  S S  S E  S  E   S  S  S  E   
----------------------|-------------------9--L-11--11-12-12-13--|
----------------------|--11-11-11-11-L-11-----------------------|
--4--------2--2--L----|-----------------------------------------|
----------------------|-----------------------------------------|


  E  E  E  E  E  S S S S E     E  S  S E  S S S  S  S S  S  S S   S  
--6-----------4------4------|-----------------9-11-11---------------|
-----6-----6-----4-4---4-4--|----------7--------------9-11-11-------|
--------4-------------------|-----7h-9----7-------------------9h-11-|
----------------------------|--5------------9-----------------------|


  E  E  E  E  E  E  E  E     E  S S S S S S  S S S  S S S  S S  
--------6-----------4-----|-----2-2-4-6-6--------4h-6-6--------|
-----6-----6-----4-----4--|---------------4h-6-6--------4h-6-6-|
--4-----------2-----------|--0---------------------------------|
--------------------------|------------------------------------|


  E  E  E  E  E  S S E  E     Q    S E  S   E  S S E  E   
--------6------------4-----|-----------------------------|
-----6-----6-----4-4----4--|-----------------------4--2--|
--4-----------2------------|--------------2g4--2-2-------|
---------------------------|--5----0-5--0----------------|


  E  S S E  E  S S E  E  E     Q    S S S S E  S S E  S S  
---------6-----4-4----------|-----------------------------|
-----6-6----6------4-----4--|-----------------------------|
--4-------------------2-----|-----------------------------|
----------------------------|--5----5-5-5-5-5--7-7-7--7-8-|


  E   E   E.  S E  E  E.  S    E  E  Q    S S E  S S E   
----------------------------|-------------6-6----2-2----|
---------11-----------9-----|--------7------------------|
-----11------------9--------|-----7---------------------|
--9-------------7-----------|--5------------------------|


  E  E  E  S S E  E  E  S S    E  E  E.  S S S S S E  S S  
--------6------------4----x-|-----------------------------|
-----6------------4---------|--------7--------------------|
--4----------x-2------------|-----7--------2-2-2---2--2-3-|
----------------------------|--5--------------------------|


  E  S S E.  S E  S S E.  S    S S E  E.  S   E  S S S S S S  
---------6------------4-----|--------------------------------|
-----6-6----------4-4-------|---------7----------------------|
--4------------2------------|------7--------7g9--9-7-9-7-----|
----------------------------|--5-5-----------------------7-8-|


  S S S S E.  S S S E  E.  S    S S E  E.  S S  S S S S S S S  
----------6-----4-4----------|---------------4h-6-6-----------|
------6-6-----------4--------|---------7------------4-5-6-4-6-|
--4-4------------------2-----|------7-------------------------|
-----------------------------|--5-5---------------------------|


  S S S S E.  S E  E  E.  S    E  E  E.  S S  S S S S S S S  
----------6-----4-----------|-------------------------------|
------5-6----------4--------|--------------2h-4-4-2-4-2-----|
--4-4-----------------2-----|---------------------------2-3-|
----------------------------|--5--5--5----------------------|


  E  E  S S S S E  E  E  S S    E  E  Q    S  S S S S S E   
--------------4--------------|-------------4S-6-6----------|
-----------------------------|--------------------4-5-5-6--|
--4--4----x-----2--2-----2-2-|-----------------------------|
-----------------------------|--5--5-----------------------|


  E  S S Q    S S S S S S E     E  S S E  S S E  S S S S S S  
---------6------------4-4----|-------------------------------|
-----6-6----------4-4--------|------------7-7-7--------------|
--4-----------2-2------------|-------------------2-2-2-2-3-3-|
-----------------------------|--5--5-5-5---------------------|


  E  S S E.  S S S S S E  S S     S  S  S  S  S  S  S  S  S  S  E  S S E   
---------6-------------4----8-|--11-11-11-11-11-11-12-12-13-13-13--9------|
-----6-6-----------4-4--------|--------------------------------------6-9--|
--4------------2-2------------|-------------------------------------------|
------------------------------|-------------------------------------------|


  E  E  E  E  E  E  E  E     E  E  S S E  S S S S S S E   
--6--6--------4--4-----4--|---------------4-6-6-------4--|
-----------7--------------|--7--7--5-6-7--------4-6-6----|
--------------------------|------------------------------|
--------------------------|------------------------------|


  E  S S S S E  S S E  E  S S    E  E  S S E  E  E  E  E   
-------------6---------4------|---------------------------|
---------6-6--------4-----4-4-|---------------------------|
--4--4-4--------2-2-----------|------------------------2--|
------------------------------|--5--5--5-5-0--2--3--4-----|


  E  E  E  S S S S E  E  S S    E  E  E  S S S S E  E  E   
--------6--x-x-4-4-4---------|----------------------------|
-----6----------------4--x-x-|----------------------6--9--|
--4--------------------------|-----4--5--6-7-L-8-9--------|
-----------------------------|--5-------------------------|


  E  E  E.  S E  E  E.  S    E  E  E  E  E  E  E  E   
--6-----------4-----------|--2-----------------------|
-----6-----------4--------|-----2--------------------|
--------4---x-------2---x-|--------0--------------2--|
--------------------------|-----------0--2--3--4-----|


  Q    E.  S E  E  E  S S    Q    E  S S S S S S S S E   
--------------------------|-----------------------------|
--------------------------|----------4-6-6-6-6-6-4-5-6--|
--4----------2--2-----0-2-|--0----L---------------------|
-----------4--------------|-----------------------------|


  Q    E.  S E  E  S S E     Q    E.  S E  E  E  E   
--------------------------|-------------------------|
--------------------------|-------------------------|
--4----L---0-2--2--L-0-2--|-----------7-9--9--9--7--|
--------------------------|--5----L-----------------|


  Q    E.  S E  E  S S S S    E  E  E  E  E.  S S S S S  
---------------------------|----------------------------|
-----------4---------4-----|--------------7-------------|
--4----L-----2--2--L---2-x-|--------------------2-2---0-|
---------------------------|--5--5--L-------------------|


  Q    E.  S E  E  S S E       H           E  E  S  S  S  
--------------------------|-------------9g11-------------|
--------------------------|------------------------10-11-|
--4----L---0-2--2--L-0-2--|--7g9--------------9--L-------|
--------------------------|------------------------------|


  Q    E.  S E  E  S S E     Q    E  S S   S S S S   S  S  E   
--------------------------|-----------------------------------|
---------------------4----|--------------7g9-9-9-9S-11-11-11--|
--4----L---0-2--2--2---2--|-----------------------------------|
--------------------------|--5----L--5-5----------------------|


  Q    E.  S E  E  S S E     Q    S S S S E  S S S S E   
--------------------------|-------6---6-6-6------6---6--|
--------------------------|--------------------6--------|
--4----L---0-2--2--L-0-2--|--0------4--------4-----4----|
--------------------------|-----------------------------|


  Q    E.  S E  E  S S E     Q    E  E  S S E  S S E     Q    E.  S E  E  Q     
---------------------4----|-------------6-6-----------|------------------------|
--------------------------|--------------------4-4-2--|------------------------|
--4----L---0-2--2--L---2--|---------------------------|--4----L---0-2--2-------|
--------------------------|--5----L--5----------------|------------------------|


  S S  S S E   S  S  S  S  S  S  S  S  E     E  E  E  E  S S E  E  E   
--6-6p-0-9-L--11-11-11-12-12-12-13-13-13--|--6-----------4-4----------|
------------------------------------------|-----6-----6------4-----4--|
------------------------------------------|--------4------------2-----|
------------------------------------------|---------------------------|


  S S E  E  S S   S S S S S  S E     E  S S S S E  E  E  E  E   
--2-2----2------5g6-6-6-6---------|---------6-6----------4-----|
------2-----2-2-----------4h-6-6--|-----6-6-----6-----4-----4--|
----------------------------------|--4-------------2-----------|
----------------------------------|----------------------------|


  E  E    S S E  S  S S S S S S S    Q    S S E  E  S S S S S  S   
----------------------------------|-----------------4-x-----------|
--------6g7-7-7-------------------|-------4-5-6---------2-3-4-----|
--0--7-----------3h-4-4-2-2-2-3-3-|--4-----------2------------(0)-|
----------------------------------|-------------------------------|


  Q    E  S S E.  S S S E     E  S S E  S S S S E  E  S S  
--------------------4------|---------6------4-4---------x-|
------------------4--------|-----6-6------6-----4---------|
--0----4--5-7-2-------x-2--|--4--------------------2------|
---------------------------|------------------------------|


   S  S  S S   S  S  S  S S   S  S  S S   S E     E  E  S. T E  E  E  S S E   
--11-11-11-------------------------------------|-----------------------------|
-----------9S-11-11-11-11----------------------|-----------------------------|
--------------------------9S-11-11-11-9h-11-7--|-----------------------------|
-----------------------------------------------|--9--9--9-------7--7----7-7--|


  S S E  S S S  S E   E   S  S  S  S  
-------------------------------------|
---------7---7h-9-9--10--11-11-11-11-|
-----------9-------------------------|
--5-5-5------------------------------|


     E   S  T   T  E   S  S E  S S S S  S  S  
---------------------------------------------|
--9g11--11-11S-(9)----------7--7-7-----------|
-------------------9--11-11--------9-9-10-11-|
---------------------------------------------|


   E   E  E    S    S      E      E  S S S S    E  E  S S S S E  E  S S S S  
-----------------------13g14--13g14------4-5-|--6--6------------------------|
-------------(14)-(14)---------------4-6-----|------------6-7-6--6----6-6-7-|
--12--12-------------------------------------|----------0-------------------|
---------------------------------------------|------------------------------|


  E  E  S S S S E   E   S  S S  S     E   E  S S S  S  E   E  S  S  E   
----------------------------------|------------------------------------|
--7--7-----------------------9-10-|--11--11----------------------------|
----------7-7-8-9--10--11-11------|------------9-9-10-11--11----11-11--|
----------------------------------|------------------------------------|


   S  S  S  S  S  S  S  S  E   S  S S  S  E    
-----14-14----14-14----14--------------------||
------------------------------------9-10-11--||
--12-------12-------12----12--11-11----------||
---------------------------------------------||




Duration Legend
---------------
W - whole
H - half
Q - quarter
E - 8th
S - 16th
T - 32nd
X - 64th
. - note dotted
|-n-|  - n-tuplets


Tablature Legend
----------------
L - tied note
x - dead note
g - grace note
(n) - ghost note
> - accentuded note
NH - natural harmonic
AH - artificial harmonic
TH - tapped harmonic
SH - semi harmonic
PH - pitch harmonic
h - hammer on
p - pull off
b - bend
br - bendRelease
pb - preBend
pbr - preBendRelease
brb - bendReleaseBend
\n/ - tremolo bar dip
\n - tremolo bar dive
-/n - tremolo bar Release up
/n\ - tremolo bar inverted dip
/n - tremolo bar return
-\n - tremolo bar Release down
S - shift slide
s - legato slide
/ -  slide into from below or out of upwards
\ -  slide into from above or out of downwards
~ - vibrato
W - wide vibrato
tr - trill
TP - tremolo picking
T - tapping
S - slap
P - pop
< - fade in
^ - brush up
v - brush down
comments
We did not receive enough feedback on this tab! Please rate:
print report bad tab
1 2 3 4 5
1 comment total.
0 reply
slappadauke wrote on October 18 2012, 12:46 pm

Why jump around the fret board so much to play the same licks? Unnecessarily difficult.

I want to post or [tab]
guest
You may want to rate the tab now too:
select rating
Please do not post tabs as comments. Select "correction" instead!