Oops, an error
Loading. Please wait.

All Along The Watchtower Bass Tab

ver4
ver4

Whole song

More versions @911Tabs.com
3,497 views 9 this week
no commentswrite comment
1 2 3 4 5
please rate
Autoscroll
+/-
esc
set tempo
stop
Difficulty
advanced
WARNING: You are trying to view
                                    content from Ultimate-Guitar.com
                                    in an unauthorized application,
                                    which is prohibited.

                                    Please use an official Ultimate
                                    Guitar Tabs application for iPhone,
                                    iPad or Android to access legitimate
                                    chords, guitar, bass, and drum tabs
                                    from Ultimate-Guitar.com database.

                                    Type "ultimate guitar tabs" in Apple
                                    App Store's or Android Market's
                                    search to find the application.
                           All Along the Watchtower                             

                                Jimi Hendrix

Converted Into Standard tuning for 5 string



      H      E  E  E  E     E  E  Q    E  E  E  E     E  E  Q    E  E  E  E   
G|--------------3--3--5--|--5--5--5-------3--3--1--|--1--1--1-------3--3--5--|
D|-----------------------|-------------------------|-------------------------|
A|-----------------------|-------------------------|-------------------------|
E|-----------------------|-------------------------|-------------------------|
B|-----------------------|-------------------------|-------------------------|

  E  E  Q    E  E  E  E     E  S S E  S S E  E  E  E   
--5--5--5-------3--3--1--|--1-------------------------|
-------------------------|----------------------------|
-------------------------|----------------------1--2--|
-------------------------|----------1--2-2-2--3-------|
-------------------------|-----4-4--------------------|


  Q    E.  S E  E  E  S S    E  E  E.  S E  E  E  E   
--------------------------|--------------------------|
--------------------------|--------------------------|
--3----3-----1--1--L--x-1-|--------------------1--2--|
-----------1--------------|--4-----1---1-2--3--------|
--------------------------|-----4--------------------|


  E  E  E.  S E  E  S S E     E   E   Q    E  E  E  E   
--------------------3-3-1--|---------------------------|
-----------------3---------|---------------------------|
--3--3--3-----1------------|---------------------1--2--|
------------4--------------|--4-------1----2--3--------|
---------------------------|------4--------------------|

  E.  S E.  S E  E  E  E     H        S S S S S S E   
--------------------------|-----------1--------------|
------------3-------------|--------------------------|
--3-----------1--1--L--1--|---------------1-1-1-1-2--|
--------------------------|--4-----------------------|
--------------------------|--------------------------|

  Q    E.  S E  E  S S E     E  E  E.  S S S E  S S S S  
--------------------------|-----------------------------|
-----------3---------3----|--------------6--------------|
--3----L-----1--1--L---1--|------------6-----1--1-1-2-2-|
--------------------------|--4--4--L--------------------|
--------------------------|-----------------------------|


  E  E  E  E  E  E  S S E     E  E  S S S S   E  S S S S S S  
---------------------------|---------------------------------|
----------------------3----|----------------6g8--------------|
--3--3--L--3--1--1--L---1--|---------------------------------|
---------------------------|--4--4--4-4-4-4------6-6-6-6-7-7-|
---------------------------|---------------------------------|

  Q    E.  S E  E  S  S   S    S       E  S S S S S S E  E  S S E   
----------------------------------|--------------------------------|
----------------------------------|--1g3--3-3-3-3-3-3-1--1---------|
-----------8----------------------|---------------------------x-1--|
--8----L-----6--6--L-----(4)p-----|--------------------------------|
---------------------(4)------(4)-|--------------------------------|

  Q    E.  S E  E  E  E     E  S S Q    E   S S S S     E   
-------------------------|--------------8------------------|
-------------------------|-----------------10-8-L----------|
--3----L-----1--1--L--1--|------------------------8-9g10---|
-------------------------|--4--4-4-4-----------------------|
-----------4-------------|---------------------------------|


  Q    E.  S E  E  S S E     Q    S S S S E  E  E  S S  
--------------------------|----------------------------|
---------------------4----|---------7------------------|
-------------2--2--L---2--|-------7---7-7-7------------|
--8----L---0--------------|--5---------------7--7--0-8-|
--------------------------|----------------------------|


  Q    E.  S E  E  E    E     E  E  S E.  E   S S S S S  S  
---------------------------|--------------8----------------|
---------------------------|-----------------10-8----------|
---------------------------|------------------------8-9-10-|
--8----8-----6--6--x--6g4--|--4--4--4----------------------|
-----------4---------------|-------------------------------|



  Q    E.  S E  E  E   S S     S  S  S  S  S  S S S S S E   E   S  S  
---------------------------|----------------------8-L-8-8--11--12-12-|
----------------------10-8-|--10-10-10-10-10-10----------------------|
---------------------------|--------------------9--------------------|
--8----L---4-6--6--6-------|-----------------------------------------|
---------------------------|-----------------------------------------|


  E  E  E  E  E  E  E   E      E   S   S  S S S S S  S S S  S S E   
--5-----------3-------------|-----------------------------------3--|
-----5-----5----34--L-------|---------------------1S-3-3-3S-5-5----|
--------3-------------------|-------------------3------------------|
-----------------------(4)--|--4----------4-4----------------------|
----------------------------|-----(4)-(4)--------------------------|


  E  E  E  E  S S E  E  E     E  S S E  S S E  S S S S S S  
--5-----------3-3----------|-------------------------------|
-----5-----5------3-----1--|------------6-6-6--------------|
--------3------------1-----|-------------------------------|
---------------------------|--4------4---------6-6-6-6-6-8-|
---------------------------|-----4-4-----------------------|

  E  S S S S E  E  S S S S E     E  E  E  E   E  S S  S S  E   
---------5-------------3------|------------------3-3h-5-------|
-----5-5-----5-----3-3-----3--|-----------6S--5---------3h-5--|
--3-------------1-------------|-------------------------------|
------------------------------|--4-----4----------------------|
------------------------------|-----4-------------------------|

  E  E  E  E  E  E  E  E     E  S S E  S S E  S S  E  S.  T   
-----5-----------3--------|----------------------------------|
--------5-----------3-----|------------6-6-8-----------------|
--3--------3--1--------1--|-------------------8-9-10---------|
--------------------------|--4------4-----------------8S-(4)-|
--------------------------|-----4-4--------------------------|


  E  E  E.  S E  E  S S E     E  E  Q    E   S S S S S  S  
---------------------------|-------------8----------------|
----------------------3----|----------------10-8-L--------|
--3--3--------1--1------1--|-----------------------8-9-10-|
------------4--------------|--4--4------------------------|
---------------------------|------------------------------|


  E  E  S S S S E  E  S S E     E  E  E  E  S  S S S  S S S S  
----------8------------------|--------------------------------|
-----------------------------|-----------6--6S-8--------------|
-----------------------------|---------------------6S-8-8-----|
--8--8------8-8-6--6------4--|--4--4--L-------------------6-7-|
------------------------4----|--------------------------------|


  E  E  S S E  E  E  S S E     E  E  E   S S E  E  S S S S  
----------------------------|-----------10-----------------|
----------------------------|--------------8-5--6--8-8-----|
----------------------------|------------------------------|
--8--8------8--6--6----0-6--|--4--4--------------------6-7-|
----------4------------4----|------------------------------|


  E  E  E.  S E  E  S S E       Q    E  S S S S E  E  S S  
---------------------------|------------------------------|
---------------------------|------------------------------|
----------------------6----|--6g8----6--6-6---------------|
--8--8------8-6--6------6--|----------------8-6-6--6--6-6-|
---------------------------|------------------------------|


  E  E  E  E  E  E  E  S S    H        E   S S   S S  E   
---------------------------|-----------8-----------------|
-----------------------8---|--------------10-8h-10-8-----|
---------------------------|-------------------------10--|
--8--8--L--4--6--6--L----6-|--4--------------------------|
---------------------------|-----------------------------|


  Q    E.  S E  E  S S  E     Q    E.   S  E  E  S S  S S  
---------------------------|------------------------------|
---------------------------|---------------3--3--L--------|
---------------------------|-----------------------1h-3-1-|
--8----L-----6--6--L----6--|--4----L---(x)----------------|
-----------4---------4-----|------------------------------|


  E  E  E  S S E  E  S S E     Q    S S S S E  S S S S E   
--------5--------------3----|-----------------------------|
---------------------3---3--|-------6---6-----------------|
--3--3---------1--1---------|------------------1-1-1-1-2--|
-------------4--------------|--4--------------------------|
----------------------------|-----------------------------|


  H        E  E  Q        S  S  S  S S  S E  S  E   S  S  S  E   
----------------------|-------------------9--L-11--11-12-12-13--|
----------------------|--10-10-11-11-L-11-----------------------|
--3--------1--1--L----|-----------------------------------------|
----------------------|-----------------------------------------|
----------------------|-----------------------------------------|


  E  E  E  E  E  S S S S E     E  S  S E  S S S  S  S S  S  S S   S  
--5-----------3------3------|-----------------8-10-10---------------|
-----5-----5-----3-3---3-3--|----------6--------------8-10-10-------|
--------3-------------------|-----6h-8----6-------------------8h-10-|
----------------------------|--4------------8-----------------------|
----------------------------|---------------------------------------|


  E  E  E  E  E  E  E  E     E  S S S S S S  S S S  S S S  S S  
--------5-----------3-----|-----1-1-3-5-5--------3h-5-5--------|
-----5-----5-----3-----3--|---------------3h-5-5--------3h-5-5-|
--3-----------1-----------|------------------------------------|
--------------------------|--4---------------------------------|
--------------------------|------------------------------------|


  E  E  E  E  E  S S E  E     Q    S E  S   E  S S E  E   
--------5------------3-----|-----------------------------|
-----5-----5-----3-3----3--|-----------------------3--1--|
--3-----------1------------|--------------1g3--1-1-------|
---------------------------|--4------4-------------------|
---------------------------|-------4----4----------------|


  E  S S E  E  S S E  E  E     Q    S S S S E  S S E  S S  
---------5-----3-3----------|-----------------------------|
-----5-5----5------3-----3--|-----------------------------|
--3-------------------1-----|-----------------------------|
----------------------------|--4----4-4-4-4-4--6-6-6--6-7-|
----------------------------|-----------------------------|


  E   E   E.  S E  E  E.  S    E  E  Q    S S E  S S E   
----------------------------|-------------5-5----1-1----|
---------10-----------8-----|--------6------------------|
-----10------------8--------|-----6---------------------|
--8-------------6-----------|--4------------------------|
----------------------------|---------------------------|


  E  E  E  S S E  E  E  S S    E  E  E.  S S S S S E  S S  
--------5------------3----x-|-----------------------------|
-----5------------3---------|--------6--------------------|
--3----------x-1------------|-----6--------1-1-1---1--1-2-|
----------------------------|--4--------------------------|
----------------------------|-----------------------------|


  E  S S E.  S E  S S E.  S    S S E  E.  S   E  S S S S S S  
---------5------------3-----|--------------------------------|
-----5-5----------3-3-------|---------6----------------------|
--3------------1------------|------6--------6g8--8-6-8-6-----|
----------------------------|--4-4-----------------------6-7-|
----------------------------|--------------------------------|


  S S S S E.  S S S E  E.  S    S S E  E.  S S  S S S S S S S  
----------5-----3-3----------|---------------3h-5-5-----------|
------5-5-----------3--------|---------6------------3-4-5-3-5-|
--3-3------------------1-----|------6-------------------------|
-----------------------------|--4-4---------------------------|
-----------------------------|--------------------------------|


  S S S S E.  S E  E  E.  S    E  E  E.  S S  S S S S S S S  
----------5-----3-----------|-------------------------------|
------4-5----------3--------|--------------1h-3-3-1-3-1-----|
--3-3-----------------1-----|---------------------------1-2-|
----------------------------|--4--4--4----------------------|
----------------------------|-------------------------------|


  E  E  S S S S E  E  E  S S    E  E  Q    S  S S S S S E   
--------------3--------------|-------------3S-5-5----------|
-----------------------------|--------------------3-4-4-5--|
--3--3----x-----1--1-----1-1-|-----------------------------|
-----------------------------|--4--4-----------------------|
-----------------------------|-----------------------------|


  E  S S Q    S S S S S S E     E  S S E  S S E  S S S S S S  
---------5------------3-3----|-------------------------------|
-----5-5----------3-3--------|------------6-6-6--------------|
--3-----------1-1------------|-------------------1-1-1-1-2-2-|
-----------------------------|--4--4-4-4---------------------|
-----------------------------|-------------------------------|


  E  S S E.  S S S S S E  S S     S  S  S  S  S  S  S  S  S  S  E  S S E   
---------5-------------3----7-|--10-10-10-10-10-10-11-11-12-12-12--8------|
-----5-5-----------3-3--------|--------------------------------------5-8--|
--3------------1-1------------|-------------------------------------------|
------------------------------|-------------------------------------------|
------------------------------|-------------------------------------------|


  E  E  E  E  E  E  E  E     E  E  S S E  S S S S S S E   
--5--5--------3--3-----3--|---------------3-5-5-------3--|
-----------6--------------|--6--6--4-5-6--------3-5-5----|
--------------------------|------------------------------|
--------------------------|------------------------------|
--------------------------|------------------------------|


  E  S S S S E  S S E  E  S S    E  E  S S E  E  E  E  E   
-------------5---------3------|---------------------------|
---------5-5--------3-----3-3-|---------------------------|
--3--3-3--------1-1-----------|------------------------1--|
------------------------------|--4--4--4-4----1--2--3-----|
------------------------------|-------------4-------------|


  E  E  E  S S S S E  E  S S    E  E  E  S S S S E  E  E   
--------5--x-x-3-3-3---------|----------------------------|
-----5----------------3--x-x-|----------------------5--8--|
--3--------------------------|-----3--4--5-6-L-7-8--------|
-----------------------------|--4-------------------------|
-----------------------------|----------------------------|


  E  E  E.  S E  E  E.  S    E  E  E  E  E  E  E  E   
--5-----------3-----------|--------------------------|
-----5-----------3--------|--6-----------------------|
--------3---x-------1---x-|-----6------------------1-|
--------------------------|--------4-----1--2--3-----|
--------------------------|-----------4--------------|


  Q    E.  S E  E  E  S S    Q    E  S S S S S S S S E   
--------------------------|-----------------------------|
--------------------------|----------3-5-5-5-5-5-3-4-5--|
--3----------1--1-------1-|-------L---------------------|
-----------3----------4---|--4--------------------------|
--------------------------|-----------------------------|


  Q    E.  S E  E  S S E     Q    E.  S E  E  E  E   
--------------------------|-------------------------|
--------------------------|-------------------------|
--3----L-----1--1--L---1--|-----------6-8--8--8--6--|
-----------4---------4----|--4----L-----------------|
--------------------------|-------------------------|


  Q    E.  S E  E  S S S S    E  E  E  E  E.  S S S S S  
---------------------------|----------------------------|
-----------3---------3-----|--------------6-------------|
--3----L-----1--1--L---1-x-|--------------------1-1-----|
---------------------------|--4--4--L-----------------4-|
---------------------------|----------------------------|


  Q    E.  S E  E  S S E       H           E  E  S S  S  
--------------------------|-------------8g10------------|
--------------------------|------------------------9-10-|
--3----L-----1--1--L---1--|--6g8--------------8--L------|
-----------4---------4----|-----------------------------|
--------------------------|-----------------------------|


  Q    E.  S E  E  S S E     Q    E  S S   S S S S   S  S  E   
--------------------------|-----------------------------------|
---------------------3----|--------------6g8-8-8-8S-10-10-10--|
--3----L-----1--1--1---1--|-----------------------------------|
-----------4--------------|--4----L--4-4----------------------|
--------------------------|-----------------------------------|


  Q    E.  S E  E  S S E     Q    S S S S E  S S S S E   
--------------------------|-------5---5-5-5------5---5--|
--------------------------|--------------------5--------|
--3----L-----1--1--L---1--|---------3--------3-----3----|
-----------4---------4----|--4--------------------------|
--------------------------|-----------------------------|


  Q    E.  S E  E  S S E     Q    E  E  S S E  S S E     Q    E.  S E  E  Q     
---------------------3----|-------------5-5-----------|------------------------|
--------------------------|--------------------3-3-1--|------------------------|
--3----L-----1--1--L---1--|---------------------------|--3----L-----1--1-------|
-----------4--------------|--4----L--4----------------|-----------4------------|
--------------------------|---------------------------|------------------------|


  S S  S S E   S  S  S  S  S  S  S  S  E     E  E  E  E  S S E  E  E   
--5-5p---8-L--10-10-10-11-11-11-12-12-12--|--5-----------3-3----------|
-------4----------------------------------|-----5-----5------3-----3--|
------------------------------------------|--------3------------1-----|
------------------------------------------|---------------------------|
------------------------------------------|---------------------------|


  S S E  E  S S   S S S S S  S E     E  S S S S E  E  E  E  E   
--1-1----1------4g5-5-5-5---------|---------5-5----------3-----|
------1-----1-1-----------3h-5-5--|-----5-5-----5-----3-----3--|
----------------------------------|--3-------------1-----------|
----------------------------------|----------------------------|
----------------------------------|----------------------------|


  E  E    S S E  S  S S S S S S S    Q    S S E  E  S S S S S  S   
----------------------------------|-----------------3-x-----------|
--------5g6-6-6-------------------|-------3-4-5---------1-2-3-----|
-----6-----------2h-3-3-1-1-1-2-2-|--3-----------1----------------|
--4-------------------------------|---------------------------(4)-|
----------------------------------|-------------------------------|


  Q    E  S S E.  S S S E     E  S S E  S S S S E  E  S S  
--------------------3------|---------5------3-3---------x-|
------------------3--------|-----5-5------5-----3---------|
-------3--4-6-1-------x-1--|--3--------------------1------|
--4------------------------|------------------------------|
---------------------------|------------------------------|


   S  S  S S   S  S  S  S S   S  S  S S   S E     E  E  S. T E  E  E  S S E   
--10-10-10-------------------------------------|-----------------------------|
-----------8S-10-10-10-10----------------------|-----------------------------|
--------------------------8S-10-10-10-8h-10-6--|-----------------------------|
-----------------------------------------------|--8--8--8-------6--6----6-6--|
-----------------------------------------------|-----------------------------|


  S S E  S S S  S E  E   S  S  S  S  
------------------------------------|
---------6---6h-8-8--9--10-10-10-10-|
-----------8------------------------|
--4-4-4-----------------------------|
------------------------------------|


     E   S  T   T  E   S  S E  S S S S S  S  
--------------------------------------------|
--8g10--10-10S-(8)----------6--6-6----------|
-------------------8--10-10--------8-8-9-10-|
--------------------------------------------|
--------------------------------------------|


   E   E  E    S    S      E      E  S S S S    E  E  S S S S E  E  S S S S  
-----------------------12g13--12g13------3-4-|--5--5------------------------|
-------------(13)-(13)---------------3-5-----|------------5-6-5--5----5-5-6-|
--11--11-------------------------------------|------------------------------|
---------------------------------------------|----------4-------------------|
---------------------------------------------|------------------------------|


  E  E  S S S S E  E   S  S S S     E   E  S S S S  E   E  S  S  E   
--------------------------------|-----------------------------------|
--6--6----------------------8-9-|--10--10---------------------------|
----------6-6-7-8--9--10-10-----|------------8-8-9-10--10----10-10--|
--------------------------------|-----------------------------------|
--------------------------------|-----------------------------------|

   S  S  S  S  S  S  S  S  E   S  S S S  E    
-----13-13----13-13----13-------------------||
------------------------------------8-9-10--||
--11-------11-------11----11--10-10---------||
--------------------------------------------||
--------------------------------------------||



Duration Legend
---------------
W - whole
H - half
Q - quarter
E - 8th
S - 16th
T - 32nd
X - 64th
. - note dotted
|-n-|  - n-tuplets


Tablature Legend
----------------
L - tied note
x - dead note
g - grace note
(n) - ghost note
> - accentuded note
NH - natural harmonic
AH - artificial harmonic
TH - tapped harmonic
SH - semi harmonic
PH - pitch harmonic
h - hammer on
p - pull off
b - bend
br - bendRelease
pb - preBend
pbr - preBendRelease
brb - bendReleaseBend
\n/ - tremolo bar dip
\n - tremolo bar dive
-/n - tremolo bar Release up
/n\ - tremolo bar inverted dip
/n - tremolo bar return
-\n - tremolo bar Release down
S - shift slide
s - legato slide
/ -  slide into from below or out of upwards
\ -  slide into from above or out of downwards
~ - vibrato
W - wide vibrato
tr - trill
TP - tremolo picking
T - tapping
S - slap
P - pop
< - fade in
^ - brush up
v - brush down
comments
We did not receive enough feedback on this tab! Please rate:
print report bad tab
1 2 3 4 5
I want to post or [tab]
guest
You may want to rate the tab now too:
select rating
Please do not post tabs as comments. Select "correction" instead!