Oops, an error
Loading. Please wait.

Angel Tab

ver4
ver4

Whole song

Interactive

More versions @911Tabs.com
34,740 views 124 this week
no commentswrite comment
1 2 3 4 5
excellent!
x 4
Autoscroll
+/-
esc
set tempo
stop
Contributor
WARNING: You are trying to view
                                    content from Ultimate-Guitar.com
                                    in an unauthorized application,
                                    which is prohibited.

                                    Please use an official Ultimate
                                    Guitar Tabs application for iPhone,
                                    iPad or Android to access legitimate
                                    chords, guitar, bass, and drum tabs
                                    from Ultimate-Guitar.com database.

                                    Type "ultimate guitar tabs" in Apple
                                    App Store's or Android Market's
                                    search to find the application.
    ------------------------------------------------------------

    JIMI HENDRIX - ANGEL. From FIRST RAYS OF THE NEW RISING SUN
                   album. Released in April 1997. First released
                   in March 5th 1971, as part of THE CRY OF LOVE
                   album.

    ------------------------------------------------------------

    Tabbed by:PJVillanueva


   Angel came down from heaven yesterday
   She stayed with me just long enough to rescue he
   And she told me a story yesterday,
   About the sweet love between the moon and the deep blue sea
   And then she spread her wings high over me
   She said she's gonna come back tomorrow

   And I said "Fly on, my sweet angel
   Fly on through the sky.
   Fly on, my sweet angel
   Tomorrow I'm gonna be by your side"

   Sure enough this morning came unto me
   Silver wings silhouetted against the child's sunrise
   And my angel she said unto me
   "Today is the day for you to rise,
   take my hand, you're gonna be my man,
   You're gonna rise"
   And she took me high over yonder

   And I said "Fly on, my sweet angel
   Fly on through the sky
   Fly on, my sweet angel
   Forever I will be by your side"

    You must tune your guitar a half step down to match the recording.

  INTRO


e|----0--- -------- 0------- --------|0---0--- 0------- -------- 0-------|
B|7--------7------------7--------7---|0--------0-----------------0-------|
G|4------------4------4--------4-----|2--------2-------------2---2---2-/-|
D|6------------6------6--------6-----|4------------4----4--------4---4-/-|
A|6------------6------6---6----6-----|4-----------------4------------4-/-|
E|0--------------------------0-------|0-----------------0----------------|


e|-------- -------- 7---7--- 9---9---|0---0--- -------- -------- 0-------|
B|7--------7---7----7---7----9---9---|0--------------------------0-------|
G|4--------4---4----9---9---11--11---|2-----2--------2------2----2---2---|
D|6--------6---6----9---9---11--11---|4--------4---4--------4----4---4---|
A|6--------6---6---------------------|4----------4----------4--------4---|
E|0----------------------------------|0-----------------0----------------|


e|-------- 0------- -------- 0-------|
B|---------0-----------------0-------|
G|----2----2---2--------2----2---2---|
D|4---4--------4----4---4--------4---|
A|4---4--------4----4---4--------4---|
E|0-----------------0----------------|

  00:19

e|-------- 2------- -------- 6-------|-HP----- -------- -------- --------|
B|---------2-----------------6-------|474---------------4----------------|
G|----3----3-----------------6---6---|----------H-------4---4------------|
D|4---4------------------------------|----6----46-4-----4H6-4------------|
A|4---4-------------4---4------------|--------------6-4----------6-5-4-2-|
E|2----------------------------------|-----------------------------------|
           Angel    came         from heaven   yesterday
                        down

e|----2--- 2---2--- 0------- 4---4---|4/6----- 6---6--- -------- --------|
B|----4----4---4----0--------0---0---|------------------6---6----4-------|
G|----4----4---4----1--------4---4---|4/6------6---6----6---6----4-------|
D|----4----4---4----2----------------|------------------6---6----4-------|
A|2---2----2---2----2----------------|------------------4---4----2-4/6-\4|
E|------------------0----------------|-----------------------------------|
        She    with just  enough to   rescue
           stayed me    long                he

  00:34

e|-------- 2-2----- -------- 6-------|-HP----- -------- -------- --------|
B|---------2-2---------------6-------|474-4-----HP-----------------------|
G|---------3-3----------6----6-------|----4----464------4----6---8-6-----|
D|---------4-4----------6------------|-------------6-6--6-6/8-8------6-4-|
A|-------------4----4---4------------|-----------------------------------|
E|2----------------------------------|-----------------------------------|
           And she  told         a    story    yesterday,
                        me

e|-------- -------- 0---0--- 24--4---|46--6-6- --6---6- ----4--- 4-------|
B|---------4---4----0---0-----/------|-/---------------------------------|
G|---------4---4----1---1----24--4---|46--6-6--6---6---64-----4----4-4---|
D|---------4---4----2---2-----/------|-/----------------\----------------|
A|2--------2---2----2---2------------|-----------------------------------|
E|------------------0---0------------|-----------------------------------|
        About  sweet  between    and  deep blue sea
             the    love  the      the
                             moon


  00:49

e|-------- -------- 2---2--- 2-2-2-2-|2-2-2-2- 2-2-2-2- 2-2-2-2- --------|
B|4--------4--------3---3----3-3-3-3-|2-2-2-2--2-2-2-2--2-2-2-2----------|
G|4--------4--------4---4----2-2-2-2-|3-3-3-3--3-3-3-3--3-3-3-3---/------|
D|4--------4--------0---0----0-0-0-0-|4-4-4-4--4-4-4-4--4-4-4-4--46-4----|
A|2--------2-2-3-4-------------------|-------------------------------6-4-|
E|-----------------------------------|-----------------------------------|
        And  she her             high over  me                   She   she's
           then     wings                                          said
               spread

e|-------- -HP----- -------- -HP-----|-------- 7---7--- -------- 7-------|
B|---------474---------------696-----|---------7---7-------------7-------|
G|----4--------4--------6--------6---|---------8---8-------------8-------|
D|----6--------6--------8--------8---|9---9----9---9----9-9-9----9---9---|
A|---------------------------------8-|9---9----9---9----9-9-9----9---9---|
E|4-----------------6--------------6-|7---7-------------7-7-7----7---7---|
  gonna             come         tomorrow
                        back


e|7---7-7- 7-7-7-7- 7-7-7-7- 7---7---|
B|7---7-7--7-7-7-7--7-7-7-7--7---7-\-|
G|8H9-9-9--9-9-9-9--9-9-9-9--9-9-9-\-|
D|7---7-7--7-7-7-7--7-7-7-7--711-7-\-|
A|9---9-9--9-9-9-9--9-9-9-9--9-9-9---|
E|7---7-7--7-7-7-7--7-7-7-7--7-7-7---|
                          And
                             I   said


  01:06

e|0------- 0------- 0---0--- 0---0---|0---0--- -------- 0---0--- --------|
B|0--------0--------0---0----0---0---|0---0----0--------0---0----0-------|
G|1--------1--------1---1----1---1---|2---2----2---2----2---2----2---2---|
D|2--------2--------2---2----2---2---|4---4----4---4----4---4----4---4---|
A|2--------2--------2---2----2---2---|4---4----4---4----4---4----4---4---|
E|0--------0--------0---0----0---0---|0---0----0---0----0---0----0---0---|
  Fly      on,      my         sweet
                                   angel

e|3---3--- 5---5--- 5---5--- 6-6-6---|7---7--- 0-0-0-0- -------- --------|
B|5---5----5---5----7---7----8-8-8---|9---9----0-0-0-0-------------------|
G|5---5----6---6----7---7----8-8-8---|9---9----1-1-1-1-----------4--4----|
D|5---5----7---7----7---7----8-8-8---|9---9----2-2-2-2------2-4/6--6--6\4|
A|3---3----7---7----5---5----6-6-6---|7---7----2-2-2-2--2-4--------------|
E|---------5---5---------------------|---------0-0-0-0-------------------|
  Fly      on       through      the  sky


e|-------- 0---0--- -------- 0-------|0---0--- 0---0--- 2-4-2--- 2-4-2---|
B|---------0---0--------0----0-------|0---0----0---0----2-2-2-5--2-2-2---|
G|---------1---1--------1----1-------|2---2----2---2----2-2-2-2--2-2-2---|
D|2--------2---2----2---2----2-------|4---4----4---4---------------------|
A|---------2---2----2---2----2-------|4---4----4---4---------------------|
E|---------0---0----0---0----0-------|0---0----0---0---------------------|
  Fly      on,      my         sweet                                  To..
                                   angel

e|3------- 5---5--- 5---5-5- 6---6---|7---7--- 7---7--- 7---7--- --------|
B|5--------5---5----7---7-7--8---8---|9---9----9---9----9---9------------|
G|5--------6---6----7---7-7--8---8---|9---9----9---9----9---9----9-8-7\6-|
D|5--------7---7----7---7-7--8---8---|9---9----9---9----9---9------------|
A|3--------7---7----5---5-5--6---6---|7---7----7---7----7---7----7-6-5\4-|
E|---------5---5---------------------|-----------------------------------|
  morrow   I'm      be       by  your side
             gonna


e|3---3--- 5---5--- 5---5--- 6---6---|
B|5---5----5---5----7---7----8---8---|
G|5---5----6---6----7---7----8---8---|
D|5---5----7---7----7---7----8---8---|
A|3---3----7---7----5---5----6---6---|
E|---------5---5---------------------|


  01:39

e|0------- 0------- ----0--- --------|----0--- ----0--- -------- 0-------|
B|0--------0--------0---0--------0---|0---0--------0--------0----0----0--|
G|1--------1--------1---1--------1---|4---4----2---2----2---2----2----2--|
D|2-----------------2--------2---2---|4---4----4---4----4---4---------4--|
A|2--------------------------2---2---|4--------4---4----4----------------|
E|0--------------------------0-------|0-----------------0----------------|

e|------0- -------- -------- --------|0------- -------- 0------- 0-------|
B|----3----0--------------3----------|0------------0----0--------0-------|
G|--4--------4----------4----4-------|2------------2----2--------2-------|
D|5------------5------5----------5---|4--------4---4----4--------4-------|
A|5------------5----5----------------|4--------4--------4--------4-------|
E|0-----------------0----------------|0--------0-------------------------|

  Rit.

e|0------- 0------- 0------- 0-------|
B|0--------0--------0--------0-------|
G|2--------2--------2--------2-------|
D|4--------4--------4--------4-------|
A|4--------4--------4--------4-------|
E|0--------0--------0--------0-------|


  01:57

e|-------- 2------- -------- 4-------|-------- -------- -------- --------|
B|---------2-------------------------|---------4-------------------------|
G|----3----3---3--------6------------|------4----4------4--------H-------|
D|4---4--------4------6---6------6---|-------------6----4H6-4---46-4-----|
A|4---4-------------4----------------|--6------------6--------6------6-4-|
E|2----------------------------------|4----------------------------------|
               Sure       this        came     me
                 enough      morning    unto

e|-------- -------- ----0--- ----4---|----6--- 6------- -------- --------|
B|---------4---4------0---0----------|------------------------6----------|
G|----4------4---0--1-------/4-------|4/6----------6-6------6------4-----|
D|--4--------------------------------|--------------------6------46------|
A|2----------------------------------|------------------4---------H--4H6-|
E|-----------------------------------|-----------------------------------|
      Silver   silhouetted   child's  sunrise
           wings      against
                          the

                                                                  H
e|------2- 2------- -------- --------|-------- -------- ----2H4- 24------|
B|---------2-----------------6-------|------7--7-----0--2/4-2H4--24--2---|
G|----3----3---3-------------6-------|----4----4-----0------------H----1-|
D|----------------------6------------|----6----6---6---------------------|
A|------------------4------------4-6-|6------------6---------------------|
E|2----------------------------------|4----------------------------------|
           And my   angel        she  said     me
                                          unto

e|-------- -------- ----0--- --------|-------- -------- ----2--- 2-------|
B|----4----4------------0----0-----1/|2---2----2--------0---0-0--0-0-0-0-|
G|----4----4--------0H1------1---2-2/|3---3----3--------1---1-1--1-1-1-0-|
D|----4----4--------2--------2---3-3/|4---4----4---4----2---2-2--2-2-2-0-|
A|2---2----2---3-4-----------------3/|4---4----4---4----2---2-2--2-2-2---|
E|---------------------------------1/|2---2----2---2----0---0-0--0-0-0---|
       "Today  is   day          for  you to
                 the                        rise,

  00:27

e|2---2--- 2---3/4- 5---5--- 5---5---|2---2-2- 2---2--- 2---2--- --------|
B|4---4----4---5/6--7---7----7---7---|2---2-2--2---2----2---2------------|
G|4---4----4---5/6--7---7----7---7---|3---3-3--3---3----3---3---4--------|
D|4---4----4---5/6--7---7----7---7---|4---4-4--4---4----4---4---46-4-----|
A|2---2----2---3/4--5---5----5---5---|4---4-4--4---4----4---4----H---6-4-|
E|-----------------------------------|2---2-2--2---2----2---2------------|
      take hand, you're be   man,     gonna rise"              and then she
        my          gonna my     you're


e|-------- -------- -------- -HP-----|7---7-7- 7-7-7-7- 7-7---7- 7-7-7-7-|
B|----------------------6----696-6---|7---7-7--7-7-7-7--7-7---7--7-7-7-7-|
G|----4-4------4-6------6--------6---|8---8-8--8-8-8-8--8-8---8--8-8-8-8-|
D|6---6-6------4-6------8--------8---|9---9-9--9-9-9-9--9-9---9--9-9-9-9-|
A|----6-6--4-6-4-6-------------------|9---9-9--9-9-9-9--9-9---9--9-9-9-9-|
E|------------------6----------------|7---7-7--7-7-7-7--7-7---7--7-7-7-7-|
  took              high     over     yonder
      me


e|7-7-7-7- 7-7-7-7- 7-7-7-7- 7-7-----|
B|7-7-7-7--7-7-7-7--7-7-7-7--7-7-----|
G8H99-9-9--9-9-9-9--9-9-9-9--9-9-8-\-|
D|7-7-7-7--7-7-7-7--7-7-7-7--7-711-\-|
A|9-9-9-9--9-9-9-9--9-9-9-9--9-9-9-\-|
E|7-7-7-7--7-7-7-7--7-7-7-7--7-7-7-\-|
                          And
                             I   said


  02:44

e|----0-0- 0---0--- ----2--- 0---2/4-|2---2--- 2---2-2- 2---2-2- 2---2---|
B|----0-0--0---0--------0----0---0---|0---0----0---0-0--0---0-0--0---0---|
G|----1-1--1---1--------2----1---2/4-|2---2----4---4-4--2---4-2--2---2---|
D|----2-2--2---2---------------------|-----------------------------------|
A|2----------------------------------|-----------------------------------|
E|0----------------------------------|-----------------------------------|
  Fly      on,      my         sweet
                                   angel

e|3---3--- 5-5-5--- 5-5-5--- 6-6-6---|7---7--- 7---7--- 7-7----- --------|
B|5---5----5-5-5----7-7-7----8-8-8---|9---9----9---9----9-9--------------|
G|5---5----6-6-6----7-7-7----8-8-8---|9---9----9---9----9-9-9-9--9-9-9-9-|
D|5---5----7-7-7----7-7-7----8-8-8---|9---9----9---9----9-9-7-7--9-9-9-9-|
A|3---3----7-7-7----5-5-5----6-6-6---|7---7----7---7----7-7-7-7-1111-9-9-|
E|---------5-5-5---------------------|-----------------------------------|
  Fly      on       through      the  sky


  02:59

e|-------- -------- -H------ --------|-------- 2------- -------- --------|
B|---------9---9----910-10---9---9---|---------2---2---------------------|
G|---------9---9----9----9---9---9---|---------2---2---------------------|
D|9--------9---9----911-11---9---9---|4---4--------4----4-4-4-4--4-2-1-0-|
A11-------11--11-----H---------------|4---4-------------4-4-4-4----------|
E12----------------------------------|2---2-------------2-2-2-2----------|
  Fly      on,      my         sweet                                  Fo..
                                   angel

e|----3--- ----5--- 5-5-5--- 6---6---|7---0--- -------- -------- --------|
B|----5--------5----7-7-7----8---8---|9---0----0--------0----------------|
G|----5--------6----7-7-7----8---8---|9---1----1---1-1--1----------------|
D|5---5--------7----7-7-7----8---8---|9---2----2---2-2--2--------2-1-0---|
A|3---3----7---7----5-5-5----6---6---|7--------2---2-2--2--------------4-|
E|---------5---5---------------------|-------------0-0-------------------|
  rever    I   will be       by  your side


e|----3-3- ----5--- 5---5-5- 6-6-6---|0------- 0------- 0------- --------|
B|----5-5------5----7---7-7--8-8-8---|0---0----0---0----0---0------------|
G|----5-5------6----7---7-7--8-8-8---|1---1----1---1----1---1------------|
D|5---5-5------7----7---7-7--8-8-8---|2---2----2---2----2---2----2-1-0---|
A|3---3-3--7---7----5---5-5--6-6-6---|2---2----2---2----2---2------------|
E|---------5---5---------------------|0---0----0---0----0---0------------|
  Oooooooooooooooooohoooooooohoooooooohoooohhh


e|3---3--- 5-5-5--- 5-5-5-5- 6-6-6-6-|
B|5---5----5-5-5----7-7-7-7--8-8-8-8-|
G|5---5----6-6-6----7-7-7-7--8-8-8-8-|
D|5---5----7-7-7----7-7-7-7--8-8-8-8-|
A|3---3----7-7-7----5-5-5-5--6-6-6-6-|
E|---------5-5-5---------------------|


  03:24

e|9-9-9--- 9------- 9---9--- 9---9---|-------- 14------ -------- --------|
B111111---11-------11--11---11--11---|14--14---14--14---14--14---14--14--|
G111111---11-------11--11---11--11---|14--14---14--14---14--14---14--14--|
D111111---11-------11--11---11--11---|14--14---14--14---14--14---14--14--|
A|9-9-9----9--------9---9----9---9---|12--12---12--12---12--12---12--12--|
E|-----------------------------------|-----------------------------------|


  (Double time)

e|9------- -------- 9------- 9-------|9---9--- 9---9--- 9---9--- 9---/---|
B|---------7---7---------------------|-----------------------------------|
G|6--------6---6----6--------6-------|6---6----6---6----6---6----6---/---|
D|-----------------------------------|-----------------------------------|
A|-----------------------------------|-----------------------------------|
E|-----------------------------------|-----------------------------------|


e|14------ 14------ 14------ 14------|14------ 14------ 14------ 14--16--|
B|-----------------------------------|-----------------------------------|
G|11-------11-------11-------11------|11-------11-------11-------11--13--|
D|-----------------------------------|-----------------------------------|
A|-----------------------------------|-----------------------------------|
E|-----------------------------------|-----------------------------------|


  03:39

e|17------ 17------ 17------ 17------|17------ 17------ 17------ 17--/---|
B|-----------------------------------|-----------------------------------|
G|14-------14-------14-------14------|14-------14-------14-------14--/---|
D|-----------------------------------|-----------------------------------|
A|-----------------------------------|-----------------------------------|
E|-----------------------------------|-----------------------------------|


e|21------ 21--21-- 21------ 21------|21--21-- 21--21-- 21--21-- 21------|
B|-----------------------------------|-----------------------------------|
G|18-------18--18---18-------18------|18--18---18--18---18--18---18------|
D|-----------------------------------|-----------------------------------|
A|-----------------------------------|-----------------------------------|
E|-----------------------------------|-----------------------------------|

  03:45

e|22--22-- 22--21-- 21--21-- 19--19--|19--17-- 17--17-- 15--15-- 14--14--|
B|-----------------------------------|-----------------------------------|
G|19--19---19--18---18--18---16--16--|16--14---14--14---12--12---11--11--|
D|-----------------------------------|-----------------------------------|
A|-----------------------------------|-----------------------------------|
E|-----------------------------------|-----------------------------------|


e|15--15-- 15--14-- 14--14-- 12--12--|12--12-- 19--19-- 17--17-- 17--17--|
B|-----------------------------------|-----------------------------------|
G|12--12---12--11---11--11----9---9--|-9---9---16--16---14--14---14--14--|
D|-----------------------------------|-----------------------------------|
A|-----------------------------------|-----------------------------------|
E|-----------------------------------|-----------------------------------|


  03:52

e|22--22-- 22--21-- 21--21-- 19--19--|19--17-- 17--17-- 15--15-- 14--14--|
B|-----------------------------------|-----------------------------------|
G|19--19---19--18---18--18---16--16--|16--14---14--14---12--12---11--11--|
D|-----------------------------------|-----------------------------------|
A|-----------------------------------|-----------------------------------|
E|-----------------------------------|-----------------------------------|
  ............................. Fade out ................................

e|15--15-- 15--14-- 14--14-- 12--12--|12--12-- 18--18-- 17--17-- 17--17--|
B|-----------------------------------|-----------------------------------|
G|12--12---12--11---11--11----9---9--|-9---9---15--15---14--14---14--14--|
D|-----------------------------------|-----------------------------------|
A|-----------------------------------|-----------------------------------|
E|-----------------------------------|-----------------------------------|
  ......................................................................


                              .... 4 times ....
e|22--22-- 22--21-- 21--21-- 19--19--|19--17-- 17--17-- 15--15-- 14--14--|
B|-----------------------------------|-----------------------------------|
G|19--19---19--18---18--18---16--16--|16--14---14--14---12--12---11--11--|
D|-----------------------------------|-----------------------------------|
A|-----------------------------------|-----------------------------------|
E|-----------------------------------|-----------------------------------|
  .......................................................................

e|15--15-- 15--15-- 15--15-- 15--15--|15--15-- 15--15-- 15--15-- --------|
B|-----------------------------------|-----------------------------------|
G|12--12---12--12---12--12---12--12--|12--12---12--12---12--12-----------|
D|-----------------------------------|-----------------------------------|
A|-----------------------------------|-----------------------------------|
E|-----------------------------------|-----------------------------------|
  ............................................................

  04:16

e|0------- -------- -------- --------|-------- -------- -------- --------|
B|2----------------------------------|-----------------------------------|
G|2----------------------------------|-----------------------------------|
D|0----------------------------------|-----------------------------------|
A|----------------------0--------2---|-----------------------------------|
E|-----------------------------------|-----------------------------------|
  ... fade in ...




        T     Thumb
        b     Small bend
        B     Bend
        R     Release
        /     Slide up
        \     Slide down
        H     Hammer-on
        P     Pull-off
        ~     Vibrato
        +     Harmonic
        x     Mute note
        .     Play note like a dot in standard notation
        ^     Ties two notes together
        (.    Pause
        Rit.  Ritardando=Slowing down
comments
print report bad tab
I want to post or [tab]
guest
You may want to rate the tab now too:
select rating
Please do not post tabs as comments. Select "correction" instead!