Oops, an error
Loading. Please wait.

Are You Experienced Tab

ver2
ver2

Whole song

Interactive

More versions @911Tabs.com
4,068 views 6 this week
no commentswrite comment
1 2 3 4 5
please rate
Autoscroll
+/-
esc
set tempo
stop
Contributor
Hey! There's an official Ultimate Guitar app which is ideal
for learning songs when you're away from computer. Get the app
WARNING: You are trying to view
                                    content from Ultimate-Guitar.com
                                    in an unauthorized application,
                                    which is prohibited.

                                    Please use an official Ultimate
                                    Guitar Tabs application for iPhone,
                                    iPad or Android to access legitimate
                                    chords, guitar, bass, and drum tabs
                                    from Ultimate-Guitar.com database.

                                    Type "ultimate guitar tabs" in Apple
                                    App Store's or Android Market's
                                    search to find the application.
#----------------------------------PLEASE NOTE---------------------------------#
#This file is the author's own work and represents their interpretation of the #
#song. You may only use this file for private study, scholarship, or research. #
#------------------------------------------------------------------------------#

ARE YOU EXPERIENCED?
As recorded by Jimi Hendrix
(From the 1967 Album ARE YOU EXPERIENCED?)

Transcribed by Andy Aledort
        

Words by Andy Aledort Music by Jimi Hendrix

Gtr I (E A D G B E) - 'Normal guitar (Jimi Hendrix)'
Gtr II (E A D G B E) - 'Backwards guitar (Jimi Hendrix)'

 Intro
  Moderate Rock Q=88
             N.C.
 4/4
  Gtr I      Gtr II
  <
  W          E E E S S S S E S S E   S S S S E S S S S E S S E
|----------|-----------------------|----------------------------|
|----------|-----------------------|----------------------------|
|----------|-x-x-x-x-x-x-x-x-x-x-x-|-x-x-x-x-x-x-x-x-x-x-x-x-x--|
|----------|-x-x-x-x-x-x-x-x-x-x-x-|-x-x-x-x-x-x-x-x-x-x-x-x-x--|
|-0--------|-x-x-x-x-x-x-x-x-x-x-x-|-x-x-x-x-x-x-x-x-x-x-x-x-x--|
|----------|-x-x-x-x-x-x-x-x-x-x-x-|-x-x-x-x-x-x-x-x-x-x-x-x-x--|


  Asus4N.C.          A5
  Gtr I
                             |-3-|
  E. S T T S S S E E E S S   S S S S S S S S S S  S  S S S S S S
|--------------------------|-------------------------------------|
|-3--2h3p2-0---------------|-------------------------------------|
|-2--------0-0-2-2---2---2-|---------2---2---2-0h=2----2---------|
|-2------------------2-----|---------2---2---2-0h=2----2-2-2-----|
|-0----------------0-0-0---|-2p0-0-0---0---0---0-(0)-0---0---0h2-|
|--------------------------|-------------------------------------|


 1st Verse
  A/C#                              Gsus2
  a E S S S S S S E S S a S S S S   a E E Q  S S S S S S S S
|---------------------------------|--------------------------|
|---------5-----------------------|----------3-3-----3-3-----|
|-------2-2-2-2-2-2---------------|----------2-2---2-2-2-----|
|---2-2---2---2-2-2-2-2-----2---2-|-2h4p2----0-0---0-0-----0-|
|-2h4-4-----------4-----2h4---4---|--------------------------|
|---------------------------------|-------3--3---3---3---3---|


  A5
   S  S  E S  S  S S S S S S S S S S   a E S S S S S S a S S E E S S
|------------------------------------|-------------------------------|
|------------------------------------|-------------------------2-0-0-|
|----------2-----2-----2-------2---2-|-0h2-----2-2---2-0h2-----2-0-0-|
|-(0)(0)-----(0)---2---2-2-2-2-----2-|-0h2-----2---2-2-----2---2-----|
|--------0-----------0-------0---0---|---0---0-----0-----0-0-0-0-----|
|--0h=2------------------------------|-----3-------------------------|


  A/C#                            Gsus2
  S  S  S S a E S S S E S E S S   E E E. S E S S  E  S S
|-------------------------------|------------------------|
|-------------------------------|-----3------3-3-(3)-----|
|---------2-0h2---2-2-----------|-----2--2---2-2-(2)-----|
|-2-(2)-2---0h2---2-2-2-2-2-2s4-|-4---0------0-0-(0)-----|
|-2h=4--------4-4---0-0-4-4-----|------------------------|
|-------------------------------|---3-3----3------3--2p0-|


  A5
  S S E E S S S S S S S E S   E S S S S S S S S S S S S S S
|---------------------------|--------------------------------|
|---------------------------|--------------------------------|
|-------2---2---2---2---2---|---2-2---2---2---2---2---2-2-2--|
|-------2-2-2---2---2---2---|---2-2---2---2---2---2-2-2-2-2--|
|-----2-0-0---0---0---0---0-|-0-0---0---0---0---0---0---0----|
|-2p0-----------------------|--------------------------------|


 Chorus
  N.C.
  Gtrs I, II                                      Gtr I
  S E S S S S S E E E S S   E S S E S S S S S S E S S
|-------------------------|---------------------------|
|-------------------------|---------------------------|
|-x-x-x-x-x-x-x-x-x-x-x-x-|-x-x-x-x-x-x-x-x-x-x-x-0-0-|
|-x-x-x-x-x-x-x-x-x-x-x-x-|-x-x-x-x-x-x-x-x-x-x-x-0---|
|-x-x-x-x-x-x-x-x-x-x-x-x-|-x-x-x-x-x-x-x-x-x-x-x-----|
|-x-x-x-x-x-x-x-x-x-x-x-x-|-x-x-x-x-x-x-x-x-x-x-x-----|


  F
  E S S S S S S S S S S S S S S   E S S S S S S S S S S S S S S
|-------------------------------|-------------------------------|
|-1---1-1-----1-1-------1---1---|---1-1-------------------1---x-|
|-2---2-0h2-----0h2-----0h2-2-2-|---2-2---2---2---2-------2-2-x-|
|-3-3---3---3---3---3-3-3-----3-|---3-3---3---3---3---3---3-3-x-|
|-3-3-------3-------------------|-------------3-----------------|
|-1---------1-------------------|-1-----1---1---1---1---1-------|


  A5
  S S S S S S S S S  S  S S S S S S   S S S S a S S S S E S S S S S S
|-----------------------------------|---------------------------------|
|-----------------------------------|---------------------------------|
|-2-----2---2---2-0h=2----2-----2-2-|---2---2---------2---2-2-2---2-2-|
|-2-----2---2---2-0h=2----2-----2-2-|---2---2-----2-2-2---2-2-2---2-2-|
|-0-0-0-0-0---0---0-(0)-0---0-0-----|-0---0---4p0-0-0---0-0---0-0-----|
|-----------------------------------|---------------------------------|


 2nd Verse
  A/C#                              Gsus2
  a E S S S S S S S S S S S S S S   a S S E Q  E S S S S S S
|---------------------------------|--------------------------|
|---------------------------------|---------3--3-3-3---3-----|
|-----2-2-2-2-------2-2-2---2-2---|---------2--2-2-2---2-----|
|-----2-2-2-2-2-2-2-2-2-2-2-2-2-2-|-2h4p2---0--0-0-----0-----|
|-2h4---------4-4-4-------4-----4-|--------------------------|
|---------------------------------|-------3-3--3-----3---2p0-|


  N.C.(A)                        A5
  S S E E. S a S S S S a E a E    E  S S S S S S S S S  S  S S S S
|------------------------------|-----------------------------------|
|------------------------------|-----------------------------------|
|-------2--2---------2-0h2-0h2-|-(2)-2-2---2-2-2---2-2-------2-2-2-|
|----------2-2h4p2-----0h2-----|-----2-2---2-2-2---2-2-------2-2-2-|
|-----0--------0---0-----------|--0------0-------0-----(0)-0-------|
|-2p0--------------------------|-----------------------------------|


  A/C#                              Gsus2
   T   T  S E S S E S S E S S S S   a E E S S E S S E E S S
|---------------------------------|-------------------------|
|---------------------------------|-------3-3---3-3---3-----|
|-----------2---2-2-2-2-2---2-----|-------2-2-0-2-2-0-2-----|
|-----------2-2-2-2-2-2-2-2-2-2---|-2h4---0-0---0-0---0-----|
|---------2-4-4-----4-----4---4-4-|-----5-------------------|
|-(0)-(2)-------------------------|-----3-3-----3-----3-2p0-|


  A5
  S S E S E S S S S S S S S S   S  S  S S E S S S S S S E S S
|-----------------------------|-----------0--------------------|
|-----------------------------|-----------0-----3p0------------|
|-------2---2---2---2---2-2---|-0h=2----------2-2-----------2--|
|-------2-2-2---2---2---2-2-2-|-0h=2--2-2---2-2-------------2--|
|-----0-0-----0---0---0---0---|-0-(0)-0-0-----------0-0-0-0----|
|-2p0-------------------------|---------------------0-0-0-0----|


 Chorus
  N.C.
  Gtrs I, II                                                Gtr I
  S S S S S S S S S E S S S S S   S S S S S S S S S S S S S S  E
|-------------------------------|---------------------------------|
|-------------------------------|---------------------------------|
|-x-x-x-x-x-x-x-x-x-x-x-x-x-x-x-|-x-x-x-x-x-x-x---x-x-x-x-x-------|
|-x-x-x-x-x-x-x-x-x-x-x-x-x-x-x-|-x-x-x-x-x-x-x---x-x-x-x-x-0-----|
|-x-x-x-x-x-x-x-x-x-x-x-x-x-x-x-|-x-x-x-x-x-x-x---x-x-x-x-x-------|
|-x-x-x-x-x-x-x-x-x-x-x-x-x-x-x-|-x-x-x-x-x-x-x---x-x-x-x-x---15\-|


  F
  E S S a E S S S S S S E S S   E S S S S S S S S S S S S S S
|-----------------------------|-------------------------------|
|-1-1-1---1-1-1---1-1-----1-1-|-----1-----------1-1-------1---|
|-2-2-2-0h2-2-----2-2-----2-2-|-2-2-------2-----2-2-----2-2---|
|-3-3-3---3-----3-----3-3-3-3-|-3-3---3---3-3---3---3---3-3-3-|
|-3---------------------3-----|-3-----3---3---3---------------|
|-1---------------------1-----|-1-----1-1-----1-------1-------|


  A5
  S S S S E S S S S S S a S S S S   E S S E. S S S S S E a E
|---------------------------------|---------------------------|
|---------------------------------|--------------0-3----------|
|-2-2---2---2-2---2-2-2-------2-2-|-2-2-2-2----2---2-2-2------|
|-2-2---2-2-2-----2-2---0h2-2-2-2-|-2-2-2-2--2-2-----2-2-0h2--|
|-0---0---0-----0---------0-0-----|-0-----0--0-0-------0---0--|
|---------------------------------|---------------------------|


  A7sus2
  Gtr II
                  <
   H          E   Q.
|----------------------------------|
|----------------------------------|
|-----------------4pb6r============|
|----------------------------------|
|----------------------------------|
|----------------------------------|
|
| Gtr I
|  E. S S E S S E      S +S  S S S
|-^5--5---5------------5-(5)-------|
|-^5----5-5------------5-(5)-5-----|
|-^4--------4---4--------------4-4-|
|-^5----------5--------------------|
|----------------------------------|
|----------------------------------|


                 \1/    \1/  \1/  \1/  \1/  \1/  \1/  \1/ \1/
  +Q            +S     +S   +S   +S   +S   +S   +S   +S  +E     +E
|-----------------------------------------------------------------------|
|-----------------------------------------------------------------------|
|-(4)b5=========(4)b6==(4)--(4)--(4)--(4)--(4)--(4)--(4)r(4)pb6r(4)-----|
|-----------------------------------------------------------------------|
|-----------------------------------------------------------------------|
|-----------------------------------------------------------------------|
|
|                                                                |-3--|
|  T     S. S S  S      S    S    S    E         E        E      S  S S
|-------------5---------5----5----5-----------------------5-------------|
|-------------5---------5----5----5--------------5--------5------5------|
|--------4--4----4---------------------4----------------------------4-4-|
|--4-------------5---------------------5------------------------------5-|
|----------------0------------------------------------------------------|
|-----------------------------------------------------------------------|


                     ~~~~~~~
  |--3--|
  E E   E   +S  E    S  +Q        +E.     S
|-------------------------------------------|
|-------------------------------------------|
|---2s==4---(4)s5---[5]-(5)-------(5)s====4-|
|-------------------------------------------|
|-------------------------------------------|
|-------------------------------------------|
|
| E   S   S  S  S S  S   S  S S S  S  S E
|---------------5---------------------------|
|---------5--5----5-----------5-5-------5---|
|-----4--------------4------4---------4-----|
|-5----------------------5---------5--------|
|-------------------------------------------|
|-------------------------------------------|


  S S    +E    +H          +E.        +S
|-----------------------------------------|
|---5b7==(5)---(5)r========(5)pb6r====(5)-|
|-----------------------------------------|
|-----------------------------------------|
|-----------------------------------------|
|-----------------------------------------|
|
| S E        S  S  E S E E  S     S S  S
|-----------------------------------------|
|--------------------------------------2--|
|---------------0h=2-0-0-0--0h====2-2-----|
|-0h2--------2--0------0-0--0h====2-------|
|-0---------------------------------------|
|-----------------------------------------|


  E E   S S E   S E   S E  E
|-----------------------------|
|-----------------------------|
|-2-2---2-2-0---0h2---2-------|
|-----------0---0-----2-2--2--|
|-----------------------0-(0)-|
|-----------------------------|
|
| E S S E   S S E   S S E  E
|-----------------------------|
|-----------------------------|
|-----------------------------|
|-0-2-2-2---2-2-2---2-2-2--2--|
|-0-0-0-0---0-0-0---0-0-0--0--|
|-----------------------------|


 Guitar Solo
  A5
    E    S  S  S  S  S  S  S     +E.    S  S  S  S
|----------15----15h17p15-17b18r(17)---17-17-17-15tr17-|
|-([2])s17----19---------------------------------------|
|------------------------------------------------------|
|------------------------------------------------------|
|------------------------------------------------------|
|------------------------------------------------------|
|
|   E    E     E     E     E         E  S  S  E
|------------------------------------------------------|
|------------------------------------------------------|
|---2----2-----2-----2-----2---------2-----2-----------|
|---2----2-----2-----2-----2---------2--2-----2--------|
|---0----0-----0-----0-----0---------0--0-----0--------|
|------------------------------------------------------|


   E.         S  +E.      S      +S   +S   S  S  S  S  S  S
|-15tr17-----17-(17)-----17b18==(17)r(17)-17p15----15-------|
|-----------------------------------------------17----17p15-|
|-----------------------------------------------------------|
|-----------------------------------------------------------|
|-----------------------------------------------------------|
|-----------------------------------------------------------|
|
|  S     S E     +S  S E          S    S   E     S  S  E
|-----------------------------------------------------------|
|-----------------------------------------------------------|
|--0h====2-----------2------------2----2---------------2----|
|----------2-----(2)---2----------2----2---2-----2--0--2----|
|----------0-----(0)---0-------------------0-----0----------|
|-----------------------------------------------------------|


                            |--3---|   |---3----|
   S  S  S  S  S  S  S  S  +S   S  S  +S   S    S  Q
|----15----15-------15-17-(17)p15-17-(17)p15---17-17\---|
|-17----17----17p15-------------------------------------|
|-------------------------------------------------------|
|-------------------------------------------------------|
|-------------------------------------------------------|
|-------------------------------------------------------|
|
|  E     E     E     E      E          S     S     E  E
|-------------------------------------------------------|
|-------------------------------------------------------|
|--------------2-----2-----------------------2-----2--2-|
|--2-----2-----2-----2------2----------2-----2-----2--2-|
|--0-----0-----0-----0------0----------0-----------0--0-|
|-------------------------------------------------------|


                   ~~
  S S E   a    +E  E  S S  E    +S  S S T    +T
|---------8pb9r(8)------8------------------------|
|-xsx-------------10-10---10---(10)s5-5-7pb9r(7)-|
|-xsx--------------------------------------------|
|-xsx-x------------------------------------------|
|-----x------------------------------------------|
|------------------------------------------------|
|
| S S S S       E  E  E    S S   E    S S
|------------------------------------------------|
|------------------------------------------------|
|---2---------------------------------2-2--------|
|-2---0---------5s=4--5----0h2---2----2-2--------|
|-0-----0-------------0----------0----0-0--------|
|------------------------------------------------|


                      |--3---|        |-3-|
  Q       E   E +S  S S S    S  S S   S S S
|-----------------------------------------5--|
|-------------5-(5)----------5--5-----5-8-5--|
|---------------------5h7----7----7b9--------|
|-------------------7-------(0)--------------|
|--------------------------------------------|
|--------------------------------------------|
|
| S S S S S S E  S  S S   S     E     E
|--------------------------------------------|
|-------2------------------------------------|
|-------2------------------------------------|
|-5p2-2---4s5s4-----2p0---2-----2-----2------|
|-0---0----------0--0-----0-----0-----0------|
|---------2s3--------------------------------|


                      |--3---|
  S S    E   S   E  S E E    E  S  S  S     +S     S  S     +E  E    E       +E   +S   +S     E   E
|---------------------------------10------------|-----------------------------------------------------|
|-5-------------/8s10p8-8---10-13-10------------|-10-13b16-(13)-----13pb17==(13)-(13)r(13)b15---------|
|---7b9------------------------------12b14r(12)-|---------------x-------------------------------------|
|-------(0)-------------------------------------|---------------------------------------------0-------|
|-----------(0)---------------------------------|-------------------------------------------------0---|
|-----------------------------------------------|-----------------------------------------------------|
|
| S S    E   E.     S E   E     E     E            E         E  S S  E        E    E          S S S S
|-----------------------------------------------|-----------------------------------------------------|
|-----------------------------------------------|-----------------------------------------------------|
|--------2---2------2-2---2-----2-----2---------|-----------------x-----------------------------2-----|
|-2h5----2---2------2-2---2-----2-----2---------|--2---------2--2-x--2--------2----2----------2-----0-|
|-0----------0------0-0---0-----0-----0---------|--0---------0--0----0--------0----0----------0---0---|
|-----------------------------------------------|-----------------------------------------------------|


                   ~~
  S  E        +S   Q    T  T  E.      +T  S.   E
|----------------------------------------------------|
|-x-13pb17r==(13)-10------10-13b15r==(13)------------|
|-x--------------------12----------------------------|
|----------------------------------------------------|
|----------------------------------------------------|
|----------------------------------------------------|
|
| S  S     E       E E  S     S    E   S     S S S
|----------------------------------------------------|
|----------------------------------------------------|
|------------------2-2--2-----2----2-----------------|
|-5s=4-----2-------2-2--2-----2----2---2-----2-4s5---|
|-0--------0-------0-0--0-----0----0---0-----0-------|
|----------------------------------------------2s3---|


                         ~~
                                    |3-|   |-3--|
    S    E          +S   Q    S  S  E  S   S S  S  +S   +S
|-------------------------------12-10--------8---------------|
|-------13pb16.5r==(13)-10---10-------(8)-10---10-(10)-(10)\-|
|------------------------------------------------------------|
|-([0])------------------------------------------------------|
|------------------------------------------------------------|
|------------------------------------------------------------|
|
|   E            E       E E  S  S  E      E        E
|------------------------------------------------------------|
|------------------------------------------------------------|
|--------------------------2---------------2--------2--------|
|---5------------5-------2-2--2--2--2------2--------2--------|
|---0------------0-------0-0--0--0--0------0--------0--------|
|------------------------------------------------------------|


  ~                                                            ~~
              |3|         |-3-|
  Q   +E.   S E S T T T T S S S S     +S    +S  S S S    +T  T E.   +Q    +E.   S
|-----------------------------5-----------|-----5---------------------------------|
|-----------------5h8p5---5-8---8pb10r(8)-|-(8)-5-5----------xS5----(5)---(5)s==2-|
|-----------5h7-7-------7-----------------|---------7pb9r(7)----------------------|
|-7---(7)---------------------------------|---------------------------------------|
|-----------------------------------------|---------------------------------------|
|-----------------------------------------|---------------------------------------|
|
| E E  E  E   E   S   S   E     E            E    E       E       E  E  E  E  S S
|-----------------------------------------|---------------------------------------|
|-----------------------------------------|---------------------------------------|
|---------2---2-----------2-----2---------|---------------------------------------|
|-2-4--5--2---2---2---2---2-----2---------|--5----2-------2-------2--2--2--2--2-2-|
|-0-0--0--0---0---0---0---0-----0---------|--0----0-------0-------0--0--0--0--0---|
|-----------------------------------------|---------------------------------------|


                                                 |----3-----|      |3|
  +S  E    +S  +S     +S  +S     +S  +S     +S  +S     +S  +S  S S E S
|----------------------------------------------------------------------|
|-(2)-2b3==(2)r(2)b3==(2)r(2)b3==(2)r(2)b3==(2)r(2)b3==(2)r(2)-0-------|
|----------------------------------------------------------------2p0-2-|
|----------------------------------------------------------------------|
|----------------------------------------------------------------------|
|----------------------------------------------------------------------|
|
|  S  E.        E          E          S      S   E             E   E
|----------------------------------------------------------------------|
|----------------------------------------------------------------------|
|--------------------------2---------------------2-------------2-------|
|-----2---------2----------2----------2----------2-------------2---2---|
|--0--0---------0----------0----------0------0---0-------------0---0---|
|----------------------------------------------------------------------|


                        A
   ~~~~
                    |3|
  +Q    S S S S T T S T S S S   S S S
|-----------------------2-----------2-|
|-------------------------2-----2-5---|
|-(2)s==4s2---2h4p2-4p2-----4b5-------|
|-----------4-------------------------|
|-------------------------------------|
|-------------------------------------|
|
|  E  E E   S S S   S   E   E     S S
|-------------------------------------|
|-----------------------2-----------2-|
|-------------------2---2---2-----2-2-|
|--2--2-2---2-2-2---2---2---2-----2-2-|
|--0--0-0---0-0-0---0---0---0-----0-0-|
|-------------------------------------|


                    ~~~~~~~~~~~~~~~~~~~~~~~~~~
   Q           +E   E    +Q        +Q
|--------------------------------------------|
|--------------------------------------------|
|-[4]pb6r======(4)-[2]---(2)-------(2)-------|
|--------------------------------------------|
|--------------------------------------------|
|--------------------------------------------|
|
|  S     S S S  E   S  S  S  S S S  S  S S S
|--------------------------------------------|
|----------------------2-----2---2---------2-|
|---------------2------2--2--2-2-2---------2-|
|--5p====2-5p2--2---2-----2----2----5--2-2-2-|
|--0-------0----0---0-----0----0----0--0-0-0-|
|--------------------------------------------|


 ~~~~~~
            |-3-|    |--3--|
  +Q.       E   S  E S S   S E.  S
|----------------------------------|
|-----------------(0)--------------|
|-(2)s======4s==2p=0h2h4p==2-4s==2-|
|----------------------------------|
|----------------------------------|
|----------------------------------|
|
|  E  S S E S S    E S   S   E S S
|----------------------------------|
|----------------------------------|
|-------------2----2-2---2-----2-2-|
|--2--2-2-2-2-2----2-2---2---2-2-2-|
|--0--0-0-0-0-0----0-0---0---0-0-0-|
|----------------------------------|


                     ~~~
              |-3-|
  S S T T T T S S S  E    E +E    +E.   S
|-----------------------------------------|
|-----------------------------------------|
|---2h4p2h4p2-4h5p4-[5]---5-(5)---(5)s==4-|
|-4---------------------------------------|
|-----------------------------------------|
|-----------------------------------------|
|
| E   S   S   E      S  S E  S  S  E  E
|-----------------------------------------|
|-----------------------------------------|
|-----2---2----------2--2----2--2-----2---|
|-2---2---2---2------2--2-2--2--2--2--2---|
|-0---0---0---0------0--0-0--0--0--0--0---|
|-----------------------------------------|


                          ~~~~~~~~~~~~~~~~~~~~~~~
                                                        |-3-|
  S    +S  +S     +S  +S  E.        +Q      +E.   +S    S S S  S  S Q  H
|-----------------------------------------------------|----------------------------|
|-5b7==(5)r(5)b7==(5)r(5)-5pb7======(5)-----(5)r==(5)-|----------------------------|
|-----------------------------------------------------|----------------------------|
|-----------------------------------------------------|-0---------x----------------|
|-----------------------------------------------------|-0---------x----------------|
|-----------------------------------------------------|---3h5s(9)------------------|
|
|                               |3|
| S     S   S      S   E        E S  E  S S  E  S  S    E      S  S Q  E S S E S S
|-----------------------------------------------------|----------------------------|
|-------------------------------0---------------------|----------------------------|
|---------------------------------0h=2--2-2--5-----2--|-----------2------2-2---2-2-|
|-5p====2---5p=====2---2----------------2-2--2--2--2--|-2------2--2----2-2-2-2-2-2-|
|-0---------0----------0----------0-(0)-0-0--0--0-----|-0------0--0-0--0-0-0-0-0-0-|
|-----------------------------------------------------|----------------------------|


                                             A       A5
                                                    3/4
  Gtr I
  S S S S a E E E S S E S S   Q  E.S S S S S E S S   E. S S S S S S S S S
|---------------------------|----------------------|-----------------------|
|---------------------------|------------5---2---2-|-----------------------|
|-----------------2-x-----2-|-2------2s4-4-2-2---2-|-2--2-2---2-2---2-2----|
|-5p2-5p2-0h2-2-2-2-x-2-2-2-|-2--5p2-2-----2-2-2---|-2--2-2-2-2-2-2-2-2----|
|-0---0-----0-0-0-----0-0---|-0--0---0-------0-0---|-0----0-0-----0-----0--|
|---------------------------|----------------------|-----------------------|


 3rd Verse
  A/C#                                Gsus2
 4/4
  S  S  S S S S S S S S S S S S S S   a S S S S E E S S E S S S S
|-----------------------------------|------------------------------|
|-----------------------------------|---------------------3s5------|
|-2-(2)---2---2---------2-2---------|-----------2---------2--------|
|-2-(2)-2-----2-------2---2---2---2-|-2h4p2---0-0------------------|
|-2h=4------4---4s3-4-------4---4---|---0--------------------------|
|-----------------------------------|-------3---3-3-3-3-3-----2p0--|


  A5
  S S E S S S S S S S S S S S S   S S S S S S S S S S S S S S S S
|-------------------------------|----------------------------------|
|-------------------------------|----------------------------------|
|---------2-2---------2-----2---|-----2-2-2-------2---2-2----------|
|-------2---2-2---2-2-2---2-2-2-|---2-2---2-----2-2-2-2-2-2-2---2--|
|-----0-----0---0-0-0---0-------|-0-2-------0-0---0-0-----0---0----|
|-2p0---------------------------|----------------------------------|


  A/C#                              Gsus2
  S S S S S S S S S  S  S S E S S   Q  Q  Q  E S S
|---------------------------------|----------------|
|---------------------------------|----------------|
|-------2-------------------------|----------2-----|
|-----2-2---2---2-2-(2)-2-2-2-----|----------0-----|
|-2h4-4---4---4---4p=2--4---4-4-4-|----------------|
|---------------------------------|-3--3--3--3-3-0-|


  E E E S S E S S a E S S   E S S S S S S S S S S E S S
|-------------------------|-----------------------------|
|-----------------------2-|-----------------------------|
|-----2-----2-----------2-|-2-------------------2-2-----|
|---2-2-2-2-2-2-2-----2---|-2---2-2---0-2---2-2-2-2-----|
|---0-0-0---0-0---3p0-0---|-0-0---0-0-0-0-0---0---0-----|
|-2-----------------------|-------------------------0h1-|


 Chorus
  Fmaj7sus2
  Q   S S S S S S S S S S S S   E S S S S S S E   S S   S S E
|-0-----1---------------1-----|---------------------------------|
|-1---1-1---1-------1---1-----|---1-1-------1-------------1-----|
|-0---0-2---2-0-2-0---0-2-----|---0-2---0h2-2-2-----2---2-2-----|
|-3-----3---3-------------3-3-|---3-3-3-----3-3---------3-3-----|
|-3---------------------------|-------3-------3-----------------|
|-1-------1-------------------|-1-----1-------1---1---------1---|
|
| Gtr II
| E E S S S S S S E   S S S S   E S S S E   S S S S.  T S S S S
|-----------------------------|---------------------------------|
|-----------------------------|---------------------------------|
|-x-x-x-x-x-x-x-x-x---x-x-x-x-|-x-x-x-x-2---x-2-2-------2-2-2-2-|
|-x-x-x-x-x-x-x-x-x---x-x-x-x-|-x-x-x-x-2---x-2-2-------2---2-2-|
|-x-x-x-x-x-x-x-x-x---x-x-x-x-|-x-x-x-x-0---x-----0h==3---------|
|-x-x-x-x-x-x-x-x-x---x-x-x-x-|-x-x-x-x-------------------------|


  N.C.  (D/F#)        (Gsus2)      (A5)
  E S S E   E H            W
|------------------------|---------------------------------|
|---x-x-x---x------------|---------------------------------|
|---x-x-x---x------------|---------------------------------|
|---x-x-x---x------------|---------------------------------|
|-0----------------------|---------------------------------|
|------------------------|---------------------------------|
|
| E S S S S E E S S S E.   E S T T S S S S S S S S S S S S
|-------------0-0--------|---------------------------------|
|-----------3-3---3-3-3--|---------------------------------|
|-----------2-2---2-2-2--|---------2-2-2-2-2-2-2-2-2-2-2---|
|-----------0---------0--|---2h4p2-2-2-2-2-2-2-2-2-2-2-2-2-|
|-0----------------------|---------4-4-4-4-4-4-4-4-----4-4-|
|---0h2-0h2-----------3--|-3-------------------------------|


  E S S E   S S E   S S S S S S   E   S S E   S S S S E   E   S S
|-------------------------------|----------------------------------|
|-------------------------------|----------------------------------|
|-x-x-x-x---x-x-x---x-x-x-x-x-x-|-x---x-x-x---x-x-x-x-x---x---x-x--|
|-x-x-x-x---x-x-x---x-x-x-x-x-x-|-x---x-x-x---x-x-x-x-x---x---x-x--|
|-x-x-x-x---x-x-x---x-x-x-x-x-x-|-x---x-x-x---x-x-x-x-x---x---x-x--|
|-x-x-x-x---x-x-x---x-x-x-x-x-x-|-x---x-x-x---x-x-x-x-x---x---x-x--|
|
| E S S S S S S S S S S S S S S   S S S S S S E   S S S S S S E
|-------------------------------|----------------------------------|
|-------------------------------|----------------------------------|
|-------2-2-2-2-2-2-----2-2-2-x-|-2-2---2-2-2-------2-2---2-2------|
|-2-----2-0-0-0-2-2-----2-2---x-|-2-2---2-2-2-----2-2-2---2-2------|
|-4-4p2-0-0-0-0-----0-0-0-0---x-|-0-0-0-------0---0-----0---0-0----|
|-------------------------------|----------------------------------|


  S S S S S S S S S E   S S S S S   E S S E   S S S S S S S S S   S
|---------------------------------|-----------------------------------|
|---------------------------------|-----------------------------------|
|-x-x-x-x-x-x-x-x-x-x---x-x-x-x-x-|-x-x-x-x---x-x-x-x-x-x-x-x-x---x---|
|-x-x-x-x-x-x-x-x-x-x---x-x-x-x-x-|-x-x-x-x---x-x-x-x-x-x-x-x-x---x---|
|-x-x-x-x-x-x-x-x-x-x---x-x-x-x-x-|-x-x-x-x---x-x-x-x-x-x-x-x-x---x---|
|-x-x-x-x-x-x-x-x-x-x---x-x-x-x-x-|-x-x-x-x---x-x-x-x-x-x-x-x-x---x---|
|
|                                                             |--3--|
| S S S S E   S S S S S S S S S S   E S S S S S S S S E   S S S S   S
|---------------------------------|-----------------------------------|
|-----------------------------0---|-----------0-----------------------|
|-2-2-2-x-----2---2---------2-0-0-|-0-2p0-----0-2-2-2-----2---0h2p==0-|
|-2-2-2-x-2---2-2-2-2-2-2-2-2---0-|-0-2p0---0---2-2-2-----2-2---------|
|---0-0---0-----0-0-0-0-0-0-0-----|-------0-----0-0-0-0---------------|
|---------------------------------|-----------------------------------|


          AsusN.C.
  S   E     S E   S S E   S S E   S S
|--------------------------------------|
|--------------------------------------|
|-x---------x-x---x-x-x---x-x-x---x-x--|
|-x---------x-x---x-x-x---x-x-x---x-x--|
|-x---------x-x---x-x-x---x-x-x---x-x--|
|-x---------x-x---x-x-x---x-x-x---x-x--|
|
| |--3--|
| S S   S E   S S S S S S E   S S S S
|--------------------------------------|
|-------3-3---x-0-x-x-x-x-x---x-x---x--|
|-2p0---2-2---x-0-x-x-x-x-x---x-x---x--|
|---------2-------x-x-x-x-x---x-x---x--|
|---------0-------x-x-x-x-x---x-x---x--|
|--------------------------------------|


                                    A5
  E   S S E   S S S S S S E   E     E   S S S S S S S S S S +S  S S S
|---------------------------------|-----------------------------------|
|---------------------------------|-----------------------------------|
|-x---x-x-x---x-x-x-x-x-x-x---x---|-2-----2---2---2-------2-(2)-----2-|
|-x---x-x-x---x-x-x-x-x-x-x---x---|-2---2-2-2-2-2-2-2-----2-(2)-2---2-|
|-x---x-x-x---x-x-x-x-x-x-x---x---|-0---0---0---0-----0-0---------0---|
|-x---x-x-x---x-x-x-x-x-x-x---x---|-----------------------------------|
|
|                                                   >
| S S E   S S E   S S E   S S S S   S S E   S S E   S S E    S  S E
|---------------------------------|-----------------------------------|
|---------------------------------|-----------------------------------|
|-x-x-x---x-x-x---x-x-x---x-x-x-x-|-x-x-x---x-x-x---x-x-x----x--x-x---|
|-x-x-x---x-x-x---x-x-x---x-x-x-x-|-x-x-x---x-x-x---x-x-x----x--x-x---|
|-x-x-x---x-x-x---x-x-x---x-x-x-x-|-x-x-x---x-x-x---x-x-x----x--x-x---|
|-x-x-x---x-x-x---x-x-x---x-x-x-x-|-x-x-x---x-x-x---x-x-x----x--x-x---|


  |-3-|
  S S S S S S S S S S S S S S S E
|---------------------------------|
|---------------------------------|
|-0h2p0-2-------------------------|
|-0h2p0-2-2-2-2-2-2---2---2---2-2-|
|-------0-0-0---0---0---0---0---0-|
|---------------------------------|


  N.C.(A)
                         |-3-| |-3-| |--3--|
  S    +S     S   S   E  S S S S S S S  S  S E. S
|----------------<5>------------------------------|
|-5b6==(5)b7-(5)-----<5>-2h5p2--------------------|
|------------(5)---------------2-4-2-2p=0h=2----2-|
|------------------------------------0-(0)-2-2--2-|
|--------------------------------------------0----|
|-------------------------------------------------|


                                                                >
  S S S  S  S S  S  S S S S S S S S S   a E S S S S S  S  E S S S S S S
|-------------------------------------|----------------------------------|
|-------------------------------------|---------------(0)----------------|
|-------------------------------------|-------------2-(0)----------------|
|---2---(0)-----(0)-------------------|-------2---2-2---------2-2--------|
|-0-------------------------0---0---0-|-0h2p0---0-----------0------------|
|-----0--2--3p2--2--2-2p0-0---0---0---|----------------3--3---2-2p0-0-2--|


  a E S S +S  E S  S  S S S S S S S
|-----------------------------------|
|---------------------------------3-|
|-------------2-------2---2---2-----|
|---2-2-2-(2)-2-2-(2)-2-2---2---2---|
|-----0------------0--------0-------|
|-0h2-------------------------------|


                                          (Asus2)
        >                               <
  S S S S S S S S S S S S S S E   E S T T  H.
|---0-0---0-0---0-0-0-0---0-0---|----------------*|
|-3-3-3-3-----3---3-----3-3-3-0-|-3-----0-(0)----*|
|-------------------------------|-2p0-2p0h=2-----*|
|-------------------------------|----------------*|
|-------------------------------|----------------*|
|-------------------------------|----------------*|



Duration Legend
---------------
W - whole; H - half; Q - quarter; E - 8th; S - 16th; T - 32nd; X - 64th; a - acciaccatura
+ - note tied to previous; . - note dotted; .. - note double dotted
Uncapitalized letters represent notes that are staccato (1/2 duration)
Irregular groupings are notated above the duration line
Duration letters will always appear directly above the note/fret number it represents the
duration for.  Duration letters with no fret number below them represent rests.  Multi-
bar rests are notated in the form Wxn, where n is the number of bars to rest for.  Low
melody durations appear below the staff

Tablature Legend
----------------
 h   - hammer-on
 p   - pull-off
 b   - bend
 pb  - pre-bend
 r   - bend release (if no number after the r, then release immediately)
 /\  - slide into or out of (from/to "nowhere")
 s   - legato slide
 S   - shift slide
 - natural harmonic
[n]  - artificial harmonic
n(n) - tapped harmonic
 ~   - vibrato
 tr  - trill
 T   - tap
 TP  - trem. picking
 PM  - palm muting
\n/  - tremolo bar dip; n = amount to dip
 \n  - tremolo bar down
 n/  - tremolo bar up
/n\  - tremolo bar inverted dip
 =   - hold bend; also acts as connecting device for hammers/pulls
 <> - volume swell (louder/softer)
 x   - on rhythm slash represents muted slash
 o   - on rhythm slash represents single note slash

Misc Legend
-----------
 |  - bar
||  - double bar
||o - repeat start
o|| - repeat end
*|  - double bar (ending)
 :  - bar (freetime)
 $  - Segno
 &  - Coda
Tempo markers -  = BPM(8/16=s8/s16), where s8 = swing 8ths, s16 = swing 16ths

comments
We did not receive enough feedback on this tab! Please rate:
print report bad tab
1 2 3 4 5
I want to post or [tab]
guest
You may want to rate the tab now too:
select rating
Please do not post tabs as comments. Select "correction" instead!